Mark Lanegan - Dead On You Chords & Tabs

 

Dead On You Chords & Tabs

Mark Lanegan Chords & Tabs

Version: 1 Type: Tab 0 ratings
1 star 2 stars 3 stars 4 stars 5 stars
comments

Dead On You Tab

   
This is a beautiful Mark Lanegan song off of the 'Whiskey for the Holy Ghost' album. In standard tuning

Intro
|----------------------------------------|
|----------------------------------------|
|-------------2---0----------------------|                                
|-----0-2---0-------2---0----------------|
|-0h2------------------------------------|
|--------------------------2^--2^-2^-----|

E
You were a ragged 
              D                  
Turquoise and twilight coat  
A
I got my head hung down for you 

verse fill
|-----------------------|
|-----------------------|
|-0h2p0---0h2p0---------|                                
|-------2-------2p0-----|
|--------------------2--|
|-----------------------|                                

E
Some day you're gonna need it 
                      D   
But it's worn or the, cloth gets torn 
A                           E
And there's only one way to go 
          D     A
It's gone dead, dead 
                  E
It's gone dead on you
[ Tab from: http://www.guitartabs.cc/tabs/m/mark_lanegan/dead_on_you_tab.html ]
|----------------------------------------|
|----------------------------------------|
|-------------2---0----------------------|                                
|-----0-2---0-------2---0----------------|
|-0h2------------------------------------|
|--------------------------2^--2^-2^-----|

E 
Take off your ragged 
              D 
Turquoise and twilight coat 
A
I got my head hung down for you 
E  
Someday you're gonna need it 
                      D
But it's worn or the, cloth gets torn 
A                               E 
And then there's only on way to go 
           D     A 
It's goin' dead, dead 
           D     A  
It's going dead, dead 
                   E 
It's goin' dead on you

|----------------------------------------|
|----------------------------------------|
|-------------2---0----------------------|                                
|-----0-2---0-------2---0----------------|
|-0h2------------------------------------|
|--------------------------2^--2^-2^-----|

that's all there is to it. it's a great little simple song
Comments