Mark Lanegan - Carry Home Chords & Tabs

 

Carry Home Chords & Tabs

Mark Lanegan Chords & Tabs

Version: 1 Type: Tab 0 ratings
1 star 2 stars 3 stars 4 stars 5 stars
comments

Carry Home Tab

   
I haven't found this tab, so there goes my version of carry home,
i hope you like it!!(and i hope you understand it,
my english is not very good)...


Standard tuning (ebgdaE)

Intro & verse

 Am          C    Am                C    G         C
e:-----0---0------0---0---0-0-----0----------------0-0-0-0-0--|
b:-----1p0-0---1--1---1p0-0-0-0h1-1---1--3-3-3-3-3-1-1-1-1-1--|
g:---------2----0-2-------2-2-2---2----0-0-0-0-0-0-0-0-0-0-0--|
d:-2-------2--2---2-------2-2-----2--2---0-0-0-0-0-2-2-2-2-2--|
a:-0-0-----0-3----0-0-------------0-3----2-2-2-2-2-3-3-3-3-3--|
E:---0------------0-0----------------------3-----3-0-0-0-0-0--|

                                                       Come down

  to the willow garden with me...

                                                       Although

  i've howled across fields and my eyes turned grey...etc


Chorus:
[ Tab from: http://www.guitartabs.cc/tabs/m/mark_lanegan/carry_home_tab.html ]
e:-0-0-0-0-3-3-3-3------------3-|
b:-1-1-1-1-3-3-3-3------------3-|
g:-2-2-2-2-0-0-0-0------------0-|
d:-2-2-2-2-0-0-0-0-etc-----0--0-|
a:-0-0-0-0-2-2-2-2------0h2---2-|
E:-0-0-0-0-3-3-3-3----------3-3-|
                         
                     This is played only on the last line of chorus

Then repeat.


I have to say that i'm not sure about the G chord in the verse,
if anyone knows the real chord or have any question or correction,
please e-mail me to
my_pain_is_self_choosen@hotmail.com

Enjoy it!!

Saludos desde chile!!

Carry home

Come down to the willow garden with me
Come go with me
Come go and see
Although i've howled across fields and my eyes turned grey
Are yours still the same
Are you still the same

Carry home
I have returned
Through so many highways
And so many tears

Your letter never survived the heat of my hand
My buring hand
My sweating hand
Your love never survived the heat of my heart
My violent heart
In the dark

Carry home
I have returned
Through so many highways
And so many tears

Come down to the willow garden with me
Come go with me
Come go and see
Although i've howled across fields and my eyes turned grey
Are yours still the same
Are you still the same
Comments