Mark Fambrough - Translucent Conception Of Our Solidarity Chords & Tabs

 

Translucent Conception Of Our Solidarity Chords & Tabs

Mark Fambrough Chords & Tabs

Version: 1 Type: Tab 1 rating
1 star 2 stars 3 stars 4 stars 5 stars
comments

Translucent Conception Of Our Solidarity Tab

Fambrough, Mark	
11/24/2005

Translucent Conception Of Our Solidarity	
	
Intro

Play this measure 3x's 

e |---10-----10----10-----10----10-----10----5-----5---|
B |------8------------8------------8-----------3-------|
G |----------------------------------------------------|
D |----------------------------------------------------|
A |----7---7--------7---7--------7---7-------2---2-----|
E |----------------------------------------------------| 


Play this measure 1x

e |------------------------------------10---|
B |---8-----8----8-----8----8-----8-----8---|
G |-----0----------0----------0---------0---|
D |-------------------------------------X---|
A |---8---8------8---8------8---8-------7---|
E |-------------------------------------0---|



Verse 

Play these measures through 2x's

e |---10-----10----10-----10----10-----10----5-----5---|
B |------8------------8------------8-----------3-------|
G |----------------------------------------------------|
D |----------------------------------------------------|
A |----7---7--------7---7--------7---7-------2---2-----|
E |----------------------------------------------------|

e |-------------------------5-----5----5-----5---|
B |---3-----3----3-----3------3----------3-------|
G |-----0----------0-----------------------------|
D |----------------------------------------------|
A |---3---3------3---3------2---2------2---2-----|
E |----------------------------------------------|

e |-------------------------5-----5----5-----5---|
B |---3-----3----3-----3------3----------3-------|
G |-----0----------0-----------------------------|
D |----------------------------------------------|
A |---3---3------3---3------2---2------2---2-----|
E |----------------------------------------------|












Bridge 

e |-----------------------------------|
B |---3-----3----3-----3----5-----5---|
G |-----0----------0----------0-------|                   
D |-----------------------------------|
A |---3---3------3---3------5---5-----|
E |-----------------------------------|

e |------------------------------------8---|
B |---6-----6----6-----6----6-----6----6---|
G |-----0----------0----------0------------|                   
D |----------------------------------------|
A |---6---6------6---6------6---6------5---|
E |----------------------------------------|



Chorus (played 1x through, then back to Verse, then 
playted 1x through to outro) Or as many times as you want.

e |---5-----5----5-----5----2-----2----5-----5---|
B |-----3----------3----------3----------3-------|
G |----------------------------------------------|
D |---0---0------0---0------0---0------0---0-----|
A |----------------------------------------------|
E |----------------------------------------------|
[ Tab from: http://www.guitartabs.cc/tabs/m/mark_fambrough/translucent_conception_of_our_solidarity_tab.html ]
e |---3-----3----5-----5----3-----3----5-----5---|
B |-----3----------3----------3----------3-------|
G |---0---0------0---0------0---0------0---0-----|
D |----------------------------------------------|
A |----------------------------------------------|
E |----------------------------------------------|

e |---5-----5----5-----5----2-----2----5-----5---|
B |-----3----------3----------3----------3-------|
G |----------------------------------------------|
D |---0---0------0---0------0---0------0---0-----|
A |----------------------------------------------|
E |----------------------------------------------|

e |---3-----3----5-----5----2-----2----5-----5---|
B |-----3----------3----------3----------3-------|
G |---0---0------0---0------4---4------4---4-----|
D |----------------------------------------------|
A |----------------------------------------------|
E |----------------------------------------------|

e |---5-----5----5-----5----5-----5----5-----5---|
B |-----3----------3----------3----------3-------|
G |----------------------------------------------|
D |----------------------------------------------|
A |---3---3------3---3------2---2------2---2-----|
E |----------------------------------------------| 










Outro

e |----------------------------------------------|
B |---1-----1----1-----1----1-----1----1-----1---|
G |-----0----------0----------0----------0-------|
D |----------------------------------------------|
A |---1---1------1---1------0---0------0---0-----|
E |----------------------------------------------|

e |----------------------------------------------|
B |---3-----3----3-----3----3-----3----3-----3---|
G |-----0----------0----------0----------0-------|
D |----------------------------------------------|
A |---3---3------3---3------2---2------2---2-----|
E |----------------------------------------------|

e |----------------------------------------------|
B |---1-----1----1-----1----1-----1----1-----1---|
G |-----0----------0----------0----------0-------|
D |----------------------------------------------|
A |---1---1------1---1------0---0------0---0-----|
E |----------------------------------------------|


Fade out here

e |---10-----10----10-----10----10-----10----10-----10---|
B |------8------------8------------8------------8--------|
G |------------------------------------------------------|
D |------------------------------------------------------|
A |----7---7--------8---8--------7---7--------8---8------|
E |------------------------------------------------------|

e |---10-----10----10-----10----10-----10----10-----10---|
B |------8------------8------------8------------8--------|
G |------------------------------------------------------|
D |------------------------------------------------------|
A |----7---7--------8---8--------7---7--------8---8------|
E |------------------------------------------------------|

e |---10-----10--------|
B |------8-------------|
G |--------------------|
D |--------------------|
A |----7---7-----------|
E |----------------0---|










Comments