Mark Curry - Find A Friend Chords & Tabs

 

Find A Friend Chords & Tabs

Mark Curry Chords & Tabs

Version: 1 Type: Tab 0 ratings
1 star 2 stars 3 stars 4 stars 5 stars
comments

Find A Friend Tab

-------------------------------------------------------------------------------
			     FIND A FRIEND - Mark Curry
-------------------------------------------------------------------------------

By:

                                                                        
E-----------------------------------------------------------------------
B-----------------------------------------------------------------------
G-----------------------------------------------------------------------
D-----------3--------3-------3---------------3--------3-------3---------
A-----------------3-----3/5-----5\3----------------3-----3/5-----5------
E---0h1--1-----1---------------------0h1--1-----1-----------------------
             Not  -     hin'         seems   its  worth     the                                                  

                                                                        
E-----------------------------------------------------------------------
B-----------------------------------------------------------------------
G------------------------------------------------------3--------3/5-----
D---------------3--------3-------3---------------3--------3-----3-5-----
A---\3----------------3-----3/5-----5\3--0h1--1-----1--------1----------
E-------0h3--3-----3----------------------------------------------------
        time      it takes          to dream                                                          

                                                                        
E-----------------------------------------------------------------------
B-----------------------------------------------------------------------
G---5-------------------------------------------------------------------
D--------------3--------3-------3---------------3--------3-------3------
A--------------------3-----3/5-----5\3----------------3-----3/5---------
E------0h1--1-----1---------------------0h1--1-----1--------------------
                So We   dont do any   thing                                                      

                                                                        
E-----------------------------------------------------------------------
B-----------------------------------------------------------------------
G-------------------------------------------------------3--------3------
D----------------3--------3-------3---------------3--------3-----3------
A---5\3----------------3-----3/5-----5\3--0h1--1-----1--------1---------
E--------0h3--3-----3---------------------------------------------------
                                            no                            
[ Tab from: http://www.guitartabs.cc/tabs/m/mark_curry/find_a_friend_tab.html ]
                                                                        
E-----------------------------------------------------------------------
B-----------------------------------------------------------------------
G----5--5---------------------------------------------------------------
D---/5-------------3--------3-------3---------------3--------3----------
A------------------------3-----3/5-----5\3----------------3-----3/5-----
E----------0h1--1-----1---------------------0h1--1-----1----------------
                                                                        

                                                                        
E-----------------------------------------------------------------------
B-----------------------------------------------------------------------
G----------------------------------------------------------3------------
D---3---------------3--------3-------3---------------3--------3---------
A------5\3----------------3-----3/5-----5\3--0h1--1-----1--------1------
E-----------0h3--3-----3------------------------------------------------
                                                                        

                                                                        
E-----------------------------------------------------------------------
B-----------------------------------------------------------------------
G---3/5--5--------------------------------------------------------------
D-------------------3--------3-------3---------------3--------3---------
A-------------------------3-----3/5-----5\3----------------3-----3------
E-----------0h1--1-----1---------------------0h1--1-----1---------------
                                                                        

                                                                        
E-----------------------------------------------------------------------
B-----------------------------------------------------------------------
G---------------5--3----------------------------------------------------
D-------3-------5--3--3-------------------------------------------------
A---/5-----5\3--3--1--3-------------------------------------------------
E---------------------1-------------------------------------------------
 
Its hard to try and match where to sing each word so here are the lyrics

Nothin seems it worth the time it takes to dream
So we dont do any thing               No
And all these truths to keep us 
keep us scared
in awe of what we must not ever know

Should I find a friend today I'm numb and guess I've gone away
Should I find a friend today you know, guess I'm goin away

Have abandoned all the ones who ever cared for me and
shut my eyes down tight so not to see
my own reflection yeah

I have imagined in my wildest dreams that I'm some one that I'm not
I've made a man a mess and master of my self deception yeah

Well should I find a friend today im numb guess ive gone away
should I find a friend today you know, guess I'm goin away
guess i'm goin

the unsung hero in this story is not real and its not fair to make you
feel like you have lost a son and everyone so far who dont know who
you really are what you're lookin for and why
even try
why even try

scared of everything around
cared for once upon a time

chorus
Comments