Mark B And Blade - You Dont See The Signs Chords & Tabs

 

You Dont See The Signs Chords & Tabs

Mark B And Blade Chords & Tabs

Version: 1 Type: Tab 0 ratings
1 star 2 stars 3 stars 4 stars 5 stars
comments

You Dont See The Signs Tab

   
You Don't See The Signs
M A R K   B .   A N D   B L A D E
Tabbed By Aaron Bridgeman (leprosy_head@hotmail.com)

http://bogans.arecool.net

TUNING: Drop D (D A D G B E)

KEY:
h = hammer on
x = dead note
[ Tab from: http://www.guitartabs.cc/tabs/m/mark_b_and_blade/you_dont_see_the_signs_tab.html ]
MAIN RIFF:
e|----------------------------|
B|----------------------------|
G|----------------------------|
D|----------------------2-3-2-|
A|----------------------------|
D|-2h4-x-4-4--2h4-x-4-4-------|

CHORUS:
e|------------|
B|------------|
G|------------|
D|-4--7--0--9-|
A|-4--7--0--9-|
D|-4--7--0--9-|
Those're the chords, it's not hard to get the timing
Comments