Marius Muller-westernhagen - Wieder Hier Chords & Tabs

 

Wieder Hier Chords & Tabs

Marius Muller-westernhagen Chords & Tabs

Version: 1 Type: Tab 0 ratings
1 star 2 stars 3 stars 4 stars 5 stars
comments

Wieder Hier Tab

   
interpret:  Marius M?ller-Westernhagen
titel:      Wieder hier
album:      Radio Maria


Akkorde:

C/G:	-0 3 2 0 1 3-
C:	-0 3 2 0 1 0-
F:	-1 3 3 2 1 1-
G:	-3 5 5 4 3 3-   oder  -3 2 0 0 0 3-
Am:	-0 0 2 2 1 0-


Akkorde von:----Christian Nowack------c_nowack@web.de---

Tabulatur von:--Henrik Hertel---------henland@nexgo.de--


Intro:  4 Mal

    C/G          F
e/--3--3-----3-----------------------------|
B/--1------1-----1-----1---1-----1---------|
G/--0----------------2-------2-------------|
D/--2----2-----2---3-----3-----3-----------|
A/--3--------------------------------------|
E/-----------------------------------------|

Diese Lied wird am besten mit 2 Gitarren gespielt, wobei die 2. Gitarre
immer die Grundakkorde spielt und die andere einfach weiter die Intro-tabulatur
spielt, bei "G" spielt die erste Gitarre dann:
[ Tab from: http://www.guitartabs.cc/tabs/m/marius_muller_westernhagen/wieder_hier_tab.html ]
    G
e/----------------------------|
B/------3---3-----3-------5-3-|
G/----4-------4-----4---4-----|
D/--5-----5-----5-----5-------|
A/----------------------------|
E/----------------------------|


C/G			F		C/G	      F
Ich hab dich wirklich lieb................................

C/G			F			      G
...................................................Tr?umen

C/G			F		C/G	      F
..........................................................

C/G			F			      G
..........................................................


		Am			F
ich bin wieder hier...		....Revier
	    G			C	C/G C
	...weg		...versteckt
	    Am			        F
	...Dreck		...tief ein
	    G			       C
	...sicher		...zu sein


Bei Korrekturen, Fragen, oder wenn ihr ?ber "Marius M-W. reden wollt oder
andere gute Tabs von ihm habt, dann mailt mir doch einfach:
henland@nexgo.de

F?r andere Tabs schaut nach unter: (Jetzt endlich die von euch geforderte neue Url
und noch mehr H?rbeispiele!)

http://guitar-meadow.cool.am
Comments