Marion Raven - Six Feet Under Chords & Tabs

 

Six Feet Under Chords & Tabs

Marion Raven Chords & Tabs

Version: 1 Type: Chords 0 ratings
1 star 2 stars 3 stars 4 stars 5 stars
comments

Six Feet Under Chords

   
 
         G               C
Six feet under, under my skin
          G                     C
There's a battle I know I can't win
      D             Em
You invade me and I surrender
Yeah..
D                        Em,AM,Em,AM  
That's what I hate about you
         G               C
Six feet under, under my skin
         G               C
There is where your story begins
         D               Em
You were wanting, I was forsaken
D
Yeah.. heh heh hey

AM                  Em
You came to me with words unspoken
D       Em              AM                  Em
I can't deny it, that I knew my glass would end up broken
D
(and that's how you got me)
AM                 Em
I blame myself for being stupid
D           Em               AM               Em             
But I can't help it, yet I'm eating right out of your hand
D                             Em,AM,Em,AM
That's what I hate about you

         G                  C
Six feet under, touching my soul
         G                     C
From the moment we met, it was sole
    D                   Em
You embraced me and I believed you
D
Yeah.. heh heh hey


[ Tab from: http://www.guitartabs.cc/tabs/m/marion_raven/six_feet_under_crd.html ]
AM                  Em
You came to me with words unspoken
D       Em              AM                  Em
I can't deny it, that I knew my glass would end up broken
D
(and that's how you got me)
AM                 Em
I blame myself for being stupid
D           Em               AM               Em             
But I can't help it, yet I'm eating right out of your hand
D                             Em,AM,Em,AM
That's what I hate about you








          Em, AM
Hey heey, hey hey          (little solo part)

E|--------8----------9---------8---------------------------|
B|---6--------6-6-------6-6------6-6-*9-8--6*--------------|
G|---------------------------------------------------------|
D|---------------------------------------------------------|
A|---------------------------------------------------------|
E|---------------------------------------------------------|  x2
*Only play the first time, on second time go straight to the chorus


E|----------------6----------------------------------------|
B|--6---8-9--------9----6---8-9----4-----------------------|
G|-------------------------------------------5--1----------|
D|---------------------------------------------------------|
A|---------------------------------------------------------|
E|---------------------------------------------------------|


     Em                     AM                      G             D
It's not that hard just walk away there's gotta be a different meaning


AM                  Em
You came to me with words unspoken
D       Em              AM                  Em
I can't deny it, that I knew my glass would end up broken
D
(and that's how you got me)
AM                 Em
I blame myself for being stupid
D           Em               AM               Em             
But I can't help it, yet I'm eating right out of your hand
D
(and that's how you got me)

AM                 Em
Now's the time for my confession
D             Em                AM              Em
Cause I can't take it, that you always were and always will be

D (hold)
Under my skin
Comments