Marion Raven - Little By Little Chords & Tabs

 

Little By Little Chords & Tabs

Marion Raven Chords & Tabs

Version: 1 Type: Tab 0 ratings
1 star 2 stars 3 stars 4 stars 5 stars
comments

Little By Little Tab

Song: Little By Little
Artist: Marion Raven
Album: Here I Am
Tabbed by: K.C. (eternallykc@yahoo.com)
Played in: Standard tuning


Intro
e|------------------------------------------------------------|
B|------------------------------------------------------------|
G|------------------------------------------------------------|
D|--------8~------------8--------8~-----6---------------------|	X1
A|--8/10~-----6--8--10---------------5--------10~-----8-------|
E|-------------------------8/10~-----------8-------6-----6/4~-|
[ Tab from: http://www.guitartabs.cc/tabs/m/marion_raven/little_by_little_tab.html ]
Verse
e|------------------------------------------------------------|
B|------------------------------------------------------------|
G|------------------------------------------------------------|
D|--------8~------------8--------8~-----6---------------------|	X2
A|--8/10~-----6--8--10---------------5--------10~-----8-------|
E|-------------------------8/10~-----------8-------6-----6----|

A mean reply, so I scream 
Another fight about nothing at all 
And then we cry and forgive 
Promising that we will never fall again

e|------------------------------------------------------------|
B|------------------------------------------------------------|
G|------------------------------------------------------------|
D|--------8~------------8-------------------------------------|
A|--8/10~-----6--8--10-----8~---------------------------------|
E|------------------------------------------------------------|

I know this much is true 
Hey


-------------------------------------------------------------------
The verse part is played during the first chorus as well and around 2:20
in the song. I think it's played exactly the same way, just the timing might be a little different.
Comments