Marion Raven - Here I Am Chords & Tabs

 

Here I Am Chords & Tabs

Marion Raven Chords & Tabs

Version: 1 Type: Chords 0 ratings
1 star 2 stars 3 stars 4 stars 5 stars
comments

Here I Am Chords

   
-------------------------------------------------------------------------------
			     SONG NAME - Band Name
-------------------------------------------------------------------------------
Tabbed by: Erika B.
Email: i.lubz.co0keiiz@gmail.com

Tuning: Standard Tuning

Capo on 3rd Fret

Intro
e|--0-0-0---0-0----|
B|--0-0-0---0-0----|
G|--0-0-0---0-0----|
D|--2-2-2---4-4----|
A|--2-2-2---2-2----|
E|--0-0-0---0-0----|

Verse: Same as the intro until you get up to "No matter what I will be there" and
"These are the words you whispered in the night", that's when you play this
e|--0-0-0---0-0--0-----|
B|--0-0-0---0-0--0-----|
G|--0-0-0---0-0--0-----|
D|--0-0-0---4-4--0-----|
A|--2-2-2---2-2--2-----|
E|--3-3-3---3-3--3-----|

Pre-Chorus
Play the Intro twice before playing this
e|--0-0-0---0-0--0-----|
B|--0-0-0---0-0--0-----|
G|--0-0-0---0-0--0-----|
D|--2-2-2---4-4--2-----|
A|--3-3-3---3-3--3-----|
E|--0-0-0---0-0--0-----|
[ Tab from: http://www.guitartabs.cc/tabs/m/marion_raven/here_i_am_crd.html ]
Chorus
                         Em
Now I'm standing in the cold
       C                 G
Everything is said and done
       G/F#           Em
Atomic winter in my soul
         C                G
From the absence of the sun
         G/F#      Em
The only remedy I know
     C             G    G/F#
Is I gotta let you go
       C9         G   D Em
Here I am, here I am


Repeat Verse


Second chorus
       C9          Em
Here I am, here I am


Bridge:
C 
There will come a day
                           Em
when all of this is in my past
     C
And there will come a day
                              Em
when you're outta my head at last
     D 
I'm trying not to fall
                           C9
Damn it's such a long way down
     D   G (let ring)
But here I am

Note: If you want the bridge to sound like the cd, then I suggest you play this
instead of Em

e|--0--0-0--0-0-----|
B|--0--0-0--0-0-----|
G|--0--0-0--0-0-----|
D|--2--5-5--4-4-----|
A|--2--2-2--2-2-----|
E|--x--x-x--x-x-----|

Play intro again then chorus till the end.
End on:
        C9         G  C  Em
Here I am, here I am

===============================================================================

There ya go! I think it's right... If not then feel free to make alterations to it!
Till next time! *Please disregard the first one I sent. I just realised the errors
after sending it. Thank you*
Comments