Marilyn Manson - You Spin Me Right Round Chords & Tabs

 

You Spin Me Right Round Chords & Tabs

Marilyn Manson Chords & Tabs

Version: 1 Type: Tab

You Spin Me Right Round Tab

   
this is my 1st tab so bare with me

tuning

e
b
g
d
a
d


Intro

Palm mute
e-----------------|
b-----------------|
g-----------------|
d-2222-55-00------|
a-2222-55-00------|
d-2222-55-00------|

pre-verse

e----------------------------|
b----------------------------|
g----------------------------|
d-222255557777999977777777---|
a-222255557777999977777777---|
d-222255557777999977777777---|

verse
[ Tab from: http://www.guitartabs.cc/tabs/m/marilyn_manson/you_spin_me_right_round_tab.html ]
soft palm mute while bass plays in background
e----------------------------------------|
b----------------------------------------|
g----------------------------------------|
d-22-------22-------77--------77---------|
a-22-------22-------77--------77---------|
d-22-------22-------77--------77---------|

chourus (mind the spelling)

e---------------------------------|
b---------------------------------|
g---------------------------------|
d-2222-55-00--2222-77-00----------|
a-2222-55-00--2222-77-00----------|
d-2222-55-00--2222-77-00----------|


solo thingy

im not 2 sure if thats how it goes but its close
e-------------------------------|
b-0-3-0-3-0-3-5-5-7-3-----------|
g-------------------------------|
d-------------------------------|
a-------------------------------|
d-------------------------------|


u can tell what order this goes in so here you are

XxXROOXxX