Marilyn Manson - Wrapped In Plastic Chords & Tabs

 

Wrapped In Plastic Chords & Tabs

Marilyn Manson Chords & Tabs

Version: 2 Type: Tab

Wrapped In Plastic Tab

   
Tuning/stemming

E
A
D
G
B
E
[ Tab from: http://www.guitartabs.cc/tabs/m/marilyn_manson/wrapped_in_plastic_tab_ver_2.html ]
|--------------------------------------------------------------------|
|--------------------------------------------------------------------|
|--------------------------------------------------------------------|
|--------------------------------------------------------------------|
|---------------------7-------------------------------------------7--|
|-0-2-2-2-5-2-0-2-0-2---0-2-2-2-5-2-0-2-0-2-8-5-0-2-2-2-5-2-0-2-0---7|

|--------------------------------------------------------------------|
|--------------------------------------------------------------------|
|--------------------------------------------------------------------|
|-----------------------4--------------------------------------------|
|-------------4-2---2------------------------------------------------|
|-0-2-2-2-5-2-----5---5----------------------------------------------|


Iemand Nederlands ?