Marilyn Manson - Thingmaker Chords & Tabs

 

Thingmaker Chords & Tabs

Marilyn Manson Chords & Tabs

Version: 1 Type: Tab 0 ratings
1 star 2 stars 3 stars 4 stars 5 stars
comments

Thingmaker Tab

          Song: Thingmaker
          Artist: Marilyn Manson
          Written by: Daisy? Gidget?
          Lyrics: Marilyn Manson
          Album: Marilyn Manson and the spooky kids "Family Jams"
          tabed by Per "Pogo" Stenberg
          fanta98@hotmail.com
          
          I like this song but I did't have the time to tab it.
          Untill I got a request (How can say No to something like that?)
          Well here it is...
          
          Intro
          
          -------------------------------------
          -------------------------------------
          -9999997777/13131313\9999\7777-------
          -------------------------------11-12-
          -------------------------------11-12-
          -------------------------------9--10-
          
          
          Main riff
          
          ------------------------------------
          ------------------------------------
          ------------------------------------
          -------8-------8-------8-------11-12
          -7-7-7-8-7-7-7-8-7-7-7-8-7-7-7-11-12
          -0-0-0-6-0-0-0-6-0-0-0-6-0-0-0-9--10
          
          
          Verse (Bass)
          
          -----------------------------------
          -----------------------------------
          -----------------------------------
          -0-0-0-6-0-0-0-6-0-0-0-6-0-0-0-9-10
          
          
          Bridge
          
          -------------------
          -------------------
          -------------------
          -11-11-11-11--11-12
          -11-11-11-11--11-12
          -9--9--9--9---9--10
          
          
          Chours (The last 3 notes are in bass, I can't here
          what gidget is playing, but it sounds good playing.)
          
          -------------------------------
          -------------------------------
          -------------------------------
          -------------------------------
          -11/14----11/14----11/14-------
          -11/14-7--11/14-7--11/14-------
          -9-/12-0--9-/12-0--9-/12-9-8-7-
          
          
          ta da!
[ Tab from: http://www.guitartabs.cc/tabs/m/marilyn_manson/thingmaker_tab.html ]
Comments