Marilyn Manson - The Telephone Chords & Tabs

 

The Telephone Chords & Tabs

Marilyn Manson Chords & Tabs

Version: 1 Type: Tab 0 ratings
1 star 2 stars 3 stars 4 stars 5 stars
comments

The Telephone Tab

          Song: Talk of One, Thought of None
          Artist: Marilyn Manson
          Written by: Daisy? Gein? Gacy?
          Lyrics by: Gacy?
          Album: ?
          tabed by: Per "Pogo" Stenberg
          fanta98@hotmail.com
          
          
          I wonder if this is the best song by the spooky kids?
          Man that you fear,Coma White,Meat for a queen and this one
          are the best manson songs but one thing I'm sure of is 
          that this is the best manson guitar solo ever!
          This song starts with a poem, I think it is Pogo (Gacy)
          who wrote and reads it. (If anyone knows write to me)
          And the rest of the song is a guitar solo.
          the real guitar parts starts at 3.10. At 2.50 there is
          the hole shit that destroys the solo.Remeber to play
          softly it sounds so much better. Mail and tell me what
          you think of the tab.
          *=Keyboard
          
          
          2.35
          -------------------------------------------------------
          --3-5^-------------------------------------------------
          -------------------------------------------------------
          -------------------------7-5----5-3----------5-5-------
          ----------5-5-5-3-8-5--5------3--------7-5-7-----7-----
          -------------------------------------------------------
          
          
          2.50
          -5-5-5-5-5-4-4-4-4-4-4------------*8-*8-*8-*8-*8-------
          -4-4-4-4-4-3-3-3-3-3-3---------------------------------
          -------------------------------------------------------
          -------------------------------------------------------
          -------------------------------------------------------
          -------------------------------------------------------
          
          
          3.10
          -8h11p8-----------------------------------------------
          --------10-9p8----------------------------------------
          ---------------------------------------9-/12-------8~-
          ---------------------------------------10/13--8-10----
          ------------------------------10----------------------
          ----------------7-8-9-10h11h12---10/13----------------
          
          3.28
          ------------------------------------------------------
          ----------------------------13------------------------
          ------8~------8h10-10-10-8----------8-8-------8-8-----
          -8-10----8-10------------------8-10------10-8-----10-8
          ------------------------------------------------------
          ------------------------------------------------------
          
          3.40
          -------------------------------------------------------
          --------------------------------------------------12-12
          ------8-10~--12----12----17-20-17--1212-10h12p10-------
          -8-10-----------15----15-----------1413----------------
          -------------------------------------------------------
          -------------------------------------------------------
          
          3.51
          -------------------------------------------------------
          ----12--12-12--131312--1616------------------17--161614
          -13------------141413-------------15---1515------171715
          ----------------------------15h17----------------------
          -------------------------------------------------------
          -------------------------------------------------------
          
          4.04
          ------------12-14--12-14-12----------------------------
          16h18-18p14--------------------------------------------
          17-----------------------------------------------------
          -------------------------------------------------------
          ----------------------------7-7--5---5---5-7-7---7p5-5-
          ---------------------------------------7---------------
          
          4.16
          -------------------------------------------------------
          ------------------------------------------8---8---8----
          -------7--7------7-7-7-7h8p7----7-7----7^--7^--7^------
          ----------9--7-9-------------10------------------------
          ---5---------------------------------------------------
          -7-----------------------------------------------------
          
          
          
          That was hard...
          Tell me what you think about the tab and if you
          know who reads the poem and who wrote it. 
          (Pogo?)
          
          fanta98@hotmail.com
[ Tab from: http://www.guitartabs.cc/tabs/m/marilyn_manson/the_telephone_tab.html ]
Comments