Marilyn Manson - The Suck For Your Solution Chords & Tabs

 

The Suck For Your Solution Chords & Tabs

Marilyn Manson Chords & Tabs

Version: 1 Type: Bass Tab 0 ratings
1 star 2 stars 3 stars 4 stars 5 stars
comments

The Suck For Your Solution Bass Tab

   
Marilyn Manson
The Suck For Your Solution
Basslines
standard tuning (C G C F)
Tabbed by Ryan Erickson & Jason Hayes

The Suck For Your Solution (basslines)
Tuning C G C F

------------------------------------------------------------------------------
------------------------------------------------------------------------------
------------------------------------------------------------------------------
-3-2-0-2-2-2-3-2-0-2-2-2-0-0-2-2-3-2-0-2-2-2-3-2-0-2-2-2-7^----  (repeat 2x)

Bend and hold the 7th fret at the end of
this figure.

--------------------------------------------------------------------------------
--------------------------------------------------------------------------------
-------------1-1-1-------------5-7-0---------------1-1-1---5-5-5-5-5-5-5-
-2-2-2-2------------2-2-2-2---------5-2-2-2-2---------2------------------  (repeat 5x)

--------------------------------------------------------------------------------
--------------------------------------------------------------------------------
------------1-1-1--------------1-1-1--------------1-1-1---5-5-5-5-5-5-5-
-2-2-2-2-----------2-2-2-2-----------2-2-2-2----------2------------------  (repeat 4x)

----------------------------------------
-----------------------------------------
-----------------------------------------
-3-2-0-2-2-2-3-2-0-2-2-2-0-0-2-2-  (repeat 6x)

After you do this part 6 times you then
do this variation for the last time.  The
"/" right before the 7 means you slide
up to that fret from somewhere at the
bottom of the neck (the end closest to
the headstock)
[ Tab from: http://www.guitartabs.cc/tabs/m/marilyn_manson/the_suck_for_your_solution_btab.html ]
----------------------------------------
-----------------------------------------
-----------------------------------------
-3-2-0-2-2-2-2---0-/7---7-7-7-7-

------------------------------------------
------------------------------------------
------------------------------------------
-3-2-0-2-2-2-3-2-0-2-2-2-7^--------  (repeat 4x)

--------------------------------------------------------------------------------
--------------------------------------------------------------------------------
-------------1-1-1-------------5-7-0---------------1-1-1---5-5-5-5-5-5-5-
-2-2-2-2------------2-2-2-2---------5-2-2-2-2---------2------------------  (repeat 2x)

--------------------		--------------------
--------------------		--------------------
--------------------		---5-5-5-5---------
-2-2-2-2---8-7-5-  (3x)	-2-----------8-7-5-

To play these parts you let all the notes
ring, meaning you don't stop them.
You do the first part 3 times then that
next part.  Then the first part again for
another 3 times.  Then go to this part.

--------------------
--------------------
---5-5-5-5-5-5-5-
-2-----------------

--------------------------------------------------------------------------------
--------------------------------------------------------------------------------
------------1-1-1--------------1-1-1--------------1-1-1---5-5-5-5-5-5-5-
-2-2-2-2-----------2-2-2-2-----------2-2-2-2----------2------------------  (repeat 2x)

----------------------------------------
-----------------------------------------
-----------------------------------------
-3-2-0-2-2-2-3-2-0-2-2-2-0-0-2-2-  (repeat 7x)

----------------------------------------
-----------------------------------------
-----------------------------------------
-3-2-0-2-2-2-2---0-/7---7-7-7-7-

------------------------------------------
------------------------------------------
------------------------------------------
-3-2-0-2-2-2-3-2-0-2-2-2-7^--------  (repeat 12 x)

Comments