Marilyn Manson - The Nobodies Chords & Tabs

 

The Nobodies Chords & Tabs

Marilyn Manson Chords & Tabs

Version: 5 Type: Tab 0 ratings
1 star 2 stars 3 stars 4 stars 5 stars
comments

The Nobodies Tab

Intro:
e|-------------------|------------------|-----------------|------------------|
a|----1---1----1---1-|---1---1----1---1-|---1-------1-----|---1---1----1---1-|
d|------2--------2---|-----2--------2---|-----1-------1---|-----2--------2---|
g|-------------------|------------------|-------2-2-----2-|------------------|
b|--0--------0-------|-3--------3-------|-----------------|-0----------------|
e|-------------------|------------------|-0---------------|----------3-------|x3

Main
e|---------------------------------------------------|------------------|
a|---------------------------------------------------|------------------|
d|------------------5-5-5-5-5-5-5-5------------------|------------------|
g|-7-7-7-7-7-7-7-7--5-5-5-5-5-5-5-5--2-2-2-2-2-2-2-2-|-7-7-7-7--5-5-5-5-|
b|-7-7-7-7-7-7-7-7--3-3-3-3-3-3-3-3--2-2-2-2-2-2-2-2-|-7-7-7-7--5-5-5-5-|
e|-5-5-5-5-5-5-5-5-------------------0-0-0-0-0-0-0-0-|-5-5-5-5--3-3-3-3-|x2

verse 1
e|-------------------|------------------|-----------------|------------------|
a|----1---1----1---1-|---1---1----1---1-|---1-------1-----|---1---1----1---1-|
d|------2--------2---|-----2--------2---|-----1-------1---|-----2--------2---|
g|-------------------|------------------|-------2-2-----2-|------------------|
b|--0--------0-------|-3--------3-------|-----------------|-0----------------|
e|-------------------|------------------|-0---------------|----------3-------|x2

Repeat Main Part
[ Tab from: http://www.guitartabs.cc/tabs/m/marilyn_manson/the_nobodies_tab_ver_5.html ]
Interlude
e|----------------------------------|
a|----------------------------------|
d|----------------------------------|
g|-7-7-7-7-7-7-7-7--3-3-3-3-3-3-3-3-|
b|-7-7-7-7-7-7-7-7--3-3-3-3-3-3-3-3-|
e|-5-5-5-5-5-5-5-5--1-1-1-1-1-1-1-1-|x3

e|----------------------------------|--------------|
a|----------------------------------|--------------|
d|----------------------------------|--------------|
g|-7-7-7-7-7-7-7-7--3-3-3-3-3-3-3-3-|-2------------|
b|-7-7-7-7-7-7-7-7--3-3-3-3-3-3-3-3-|-2----5-7-5-3-|
e|-5-5-5-5-5-5-5-5--1-1-1-1-1-1-1-1-|-0------------|

repeat Intro riff

e|-------------------|------------------|-----------------|---------|---------|
a|----1---1----1---1-|---1---1----1---1-|-----------------|---------|---------|
d|------2--------2---|-----2--------2---|-----------------|---------|---------|
g|-------------------|------------------|-2-2-2-2-2-2-2-2-|-7-7-7-7-|-5-5-5-5-|
b|--0--------0-------|-3--------3-------|-2-2-2-2-2-2-2-2-|-7-7-7-7-|-5-5-5-5-|
e|-------------------|------------------|-0-0-0-0-0-0-0-0-|-5-5-5-5-|-3-3-3-3-|

Ending
e|---------------------------------------------------|------------------|
a|---------------------------------------------------|------------------|
d|------------------5-5-5-5-5-5-5-5------------------|------------------|
g|-7-7-7-7-7-7-7-7--5-5-5-5-5-5-5-5--2-2-2-2-2-2-2-2-|-7-7-7-7--5-5-5-5-|
b|-7-7-7-7-7-7-7-7--3-3-3-3-3-3-3-3--2-2-2-2-2-2-2-2-|-7-7-7-7--5-5-5-5-|
e|-5-5-5-5-5-5-5-5-------------------0-0-0-0-0-0-0-0-|-5-5-5-5--3-3-3-3-|

e|--------------|
a|--------------|
d|--------------|
g|-22-22-22-22--|
b|-22-22-22-22--|
e|-00-00-00-00--|
Comments