Marilyn Manson - The Nobodies Chords & Tabs

 

The Nobodies Chords & Tabs

Marilyn Manson Chords & Tabs

Version: 4 Type: Tab 0 ratings
1 star 2 stars 3 stars 4 stars 5 stars
comments

The Nobodies Tab

Marilyn Manson-The Nobodies 
From: HolyWood
Tabbed by Nora (Nora5555@aol.com)
(the running order is at the bottom)
This tab is sounds perfect to me! but if anybody feals there is a mistake please email 
me your correction!

Tuning: Standard (EADGBE)
<1> Intro/ verse
E|------------------------|-------------------------------|
A|--1-1---1-1---1-1---1-1-|-0------0--------1-1----0------|
D|---2-----2-----2-----2--|---1------1-------2-------1-4-5|
G|------------------------|-----3-3----3------------------|
B|0-----0-----0-----0-----|-------------0-----------------|
E|------------------------|0---------------------0--------|

<2> Chorus
|------------------------|
|------------------------|
|------------------------|
|-7---8----2---7---5-----|
|-7---8----2---7---5-----|
|-5---10---0---5---3-----|
  x8  x8   x8  x4  x4
[ Tab from: http://www.guitartabs.cc/tabs/m/marilyn_manson/the_nobodies_tab_ver_4.html ]
<3> some children died the other day...
|--------------------------------|
|--------------------------------|
|--------------------------------|
|--7--3---7--3---7--3---7--3---2-|
|--7--3---7--3---7--3---7--3---2-|
|--5--1---5--1---5--1---5--1---0-|
  x8 x8  x8 x8  x8 x8  x8 x8  x16


<4> Enter chorus...
|------------|
|------------|
|------------|
|-2--7--5----|
|-2--7--5----|
|-0--5--3----|
  x8 x4 x4

<5> Outro
|--------------------------------------|
|--------------------------------------|
|--2--2------2--2------2--2-----2--2---|
|--2--2------2--2------2--2-----2--2---|
|--0--0------0--0------0--0-----0--0---|
|--------------------------------------|

Play:

<1> [x1] (x1 for intro and x2 for verse "today I'm dirty...")
<2> [x2] (We are the Nobodies! Wanna be somebodies...)
<1> [x1] (yesterday I was dirty...)
<2> [x2] (We are the Nobodies...)
<3> [x1] (Some children died...)
<1> [x2] (on 2nd, "nah nanah nah nah" and on 3rd, "we are the nobodies") 
<2> [x2] (" We are the nobodies, wanna be somebodies...")
<5> [x1] ("...WE'RE DEAD, THEY'LL KNOW JUST WHO WE ARE!")
<2> [x2] ("We are the Nobodies" etc)
Comments