Marilyn Manson - The Nobodies Chords & Tabs

 

The Nobodies Chords & Tabs

Marilyn Manson Chords & Tabs

Version: 4 Type: Bass Tab 0 ratings
1 star 2 stars 3 stars 4 stars 5 stars
comments

The Nobodies Bass Tab

The Nobodies - Marilyn Manson

By: Jon Craven (i_apathy@hotmail.com)
For questions, comments, feedback, an outline of the timing, write the above
address.

Note:
  -Played with a pick.

(4/4)(75 bpm)
Standard tuning

R - quarter rest
* - note held for an eighth beat

Verse: (x2)(0:19)
|----------------|----------------|----------------|----------------|
|----------------|----------------|----------------|----------------|
|0-0-R---0-0-R---|3-3-R---3-3-R---|----------------|0-0-R-----------|
|----------------|----------------|0-0-R---0-0-R---|--------3-3-R---|
[ Tab from: http://www.guitartabs.cc/tabs/m/marilyn_manson/the_nobodies_btab_ver_4.html ]
Chorus: (x2)(0:44)
|----------------|----------------|----------------|----------------|
|----------------|----------------|----------------|----------------|
|0-0-0-0-0-0-0-0-|3-3-3-3-3-3-3-3-|----------------|0-0-0-0---------|
|----------------|----------------|0-0-0-0-0-0-0-0-|--------3-3-3-3-|

Fill (outro): (1:10)
|----------------|
|----------------|
|0-0-R---0-0-R---|
|----------------|

Verse (x2)
Chorus (x2)

Interlude: (x4)(2:04)
|----------------|----------------|
|----------------|----------------|
|0-0-0-0-0-0-0-0-|----------------|
|----------------|1-1-1-1-1-1-1-1-|

Bridge: (2:30)
|----------------|----------------|
|----------------|--------2-0-----|
|----------------|------------3-2-|
|1-*-*-*-*-*-*-*-|*-*-*-*---------|

Verse (x2)

Verse 2: (3:02)
|----------------|----------------|----------------|----------------|
|----------------|----------------|----------------|----------------|
|0-0-R---0-0-R---|3-3-R---3-3-R---|----------------|0-0-0-0---------|
|----------------|----------------|0-0-0-0-0-0-0-0-|--------3-3-3-3-|

Chorus
Outro (x2)
Comments