Marilyn Manson - The Nobodies Chords & Tabs

 

The Nobodies Chords & Tabs

Marilyn Manson Chords & Tabs

Version: 3 Type: Bass Tab 0 ratings
1 star 2 stars 3 stars 4 stars 5 stars
comments

The Nobodies Bass Tab

-------------------------------------------------------------------------------
			     THE NOBODIES - Marilyn Manson
-------------------------------------------------------------------------------

By: ausmus (the_black_jc@hotmail.com


(enter at 0:19)

Verse						      (2x)
G|-------------------------------------------------------|
D|*-----------------------------------------------------*|
A|*-----------------------------------------------------*|
E|-5-5-x--5-5-x--8-8-x--8-8-x--0-0-x--0-0-x-5-5-x--3-3-x-|
[ Tab from: http://www.guitartabs.cc/tabs/m/marilyn_manson/the_nobodies_btab_ver_3.html ]
Chorus                                                         (2x)
G|----------------------------------------------------------------|
D|*--------------------------------------------------------------*|
A|*--------------------------------------------------------------*|
E|-5-5-5-5-5-5-5-5/8-8-8-8-8-8-8-8-0-0-0-0-0-0-0-0-5-5-5-5\3-3-3-3|

Pre-verse        
G|--------------|
D|--------------|
A|--------------|
E|-5-5-x--5-5-x-|

Verse (2x)
Chorus (2x)

Bridge                          (4x)     (3x) 
G|---------------------------------|--------|---------|
D|*-------------------------------*|*------*|---------|
A|*-------------------------------*|*------*|-7-5-3-2-|
E|-5-5-5-5-5-5-5-5\1-1-1-1-1-1-1-1-|-0-0-x--|---------|
Verse (2x)

Pre-Chorus
G|-------------------------------------------------------------|
D|-------------------------------------------------------------|
A|-------------------------------------------------------------|
E|-5-5-x--5-5-x--8-8-x--8-8-x--0-0-0-0-0-0-0-0-5-5-5-5\3-3-3-3-|

Chorus (1x)

Outro  (4x)
G|--------|
D|*------*|
A|*------*|
E|-5-5-x--|
Comments