Marilyn Manson - The Last Day On Earth Chords & Tabs

 

The Last Day On Earth Chords & Tabs

Marilyn Manson Chords & Tabs

Version: 1 Type: Bass Tab 0 ratings
1 star 2 stars 3 stars 4 stars 5 stars
comments

The Last Day On Earth Bass Tab

The Last Day on Earth - Marilyn Manson
Jon Craven (i_apathy@hotmail.com; www.homestead.com/larsramirez)
(note: there isn't any actual bass to this song)
(enters @ 0:10)

Riff 1: (x3)
G:-----------------|-----------------|-----------------|-----------------|
D:-----------------|-----------------|-----------------|-----------------|
A:-----------------|-----------------|-----------------|-----------------|
E:-7-7-7-7-7-7-7-7-|-5-5-5-5-5-5-5-5-|-0-0-0-0-0-0-0-0-|-0-0-0-0-0-0-0-0-|

Riff 2:
G:-----------------|-----------------|-----------------|-----------------|
D:-----------------|-----------------|-----------------|-----------------|
A:-7-7-7-7-7-7-7-7-|-5-5-5-5-5-5-5-5-|-----------------|-----------------|
E:-----------------|-----------------|-7-7-7-7-7-7-7-7-|-7-7-7-7-7-7-7-7-|

Pause for 32 measures
Riff 1 (x3)
Pause for 36 measures
Riff 1 (x3)
Riff 2
Pause for 24 measures
Riff 1 (x3)
Riff 2
Riff 1 (x3)
Riff 2 (x2)
Break till end
===========
[ Tab from: http://www.guitartabs.cc/tabs/m/marilyn_manson/the_last_day_on_earth_btab.html ]
          Tabbed By Mike Gagnon
          The Last Day On Earth
          By: Marilyn Manson
          From: Mechanical Animals
          
          Standard Tuning (EADG)
          
          Intro/Chorus
          
          G-----------------------------------------------------------------
          D-----------------------------------------------------------------
          A-2-2-2-2-2--2---------------------------------5-5-5-5-5--5-3-3-2-
          E--------------3--3-3-0--0-0--0-0--0-0--0-0-0---------------------
          
          Play At the end of the first chorus 
          
          A-5-----------------3------2
          
          Bridge/Verse
          
          G-------------------------------------------------------------------
          D-------------------------------------------------------------------
          A-------------------------------------------------------------------
          E-5-5-5-5-5--5-3-3-3-3-3--1-1-1-1-1--1-3-3-3-3-3--3-5-5-5-5-5--5-3-3
          
          Continued
          
          G-------------------------------------
          D-------------------------------------
          A----------5-5-5-5-5--5-5--5-5--5-5-5-
          E-3-3-3--3----------------------------
          
          I am not much for tabbing bass (This is my first) but is was worth
          a shot in the dark.
Comments