Marilyn Manson - The Fight Song Chords & Tabs

 

The Fight Song Chords & Tabs

Marilyn Manson Chords & Tabs

Version: 4 Type: Tab 0 ratings
1 star 2 stars 3 stars 4 stars 5 stars
comments

The Fight Song Tab

		the fight song by marilyn manson 
[-----11--------------------------------------]
[---------------9-9------------------9-9------]
[--11----9-9-11-9-9-9---11-11-9-9-11-9-9-9----]
[--11----9-9-11-7-7-9---11-11-9-9-11-7-7-9----]
[--9-----7-7-9------7---9--9--7-7-9------7----]
[---------------------------------------------]

CHORUS/ 2nd INTRO

[------------------------]
[------------------------]
[------------------------]
[-4-4--2--2--4--7--7-7---]
[-4-4--2--2--4--7--7-7---]
[-2-2--0--0--2--5--5-5---]

Verse
[-----11--------------------------------------]
[---------------9-9------------------9-9------]
[--11----9-9-11-9-9-9---11-11-9-9-11-9-9-9----]
[--11----9-9-11-7-7-9---11-11-9-9-11-7-7-9----]
[--9-----7-7-9------7---9--9--7-7-9------7----]
[---------------------------------------------]
[ Tab from: http://www.guitartabs.cc/tabs/m/marilyn_manson/the_fight_song_tab_ver_4.html ]
[---------------------------------------------------]
[----------------9-9--------------------------------]
[-11-11-9-9--11--9-9-11----11-11-9-9-11--9-9-9------]
[-11-11-9-9--11--7-7-11----11-11-9-9-11--9-9-9------]
[--9-9--7-7--9-------9-----9--9--7-7-9---7-7-7------]
[---------------------------------------------------]

"and then when we were good......"
play each note 8 times
[-----------------------------]
[-----------------------------]
[-4--2--4--2--7--4--2---------]
[-4--2--4--2--7--4--2--2------]
[-2--0--2--0--5--2--0--2------]
[----------------------0------]

"the death of one......."

[-------------------------------------------------------------------]
[-------------------------------------------------------------------]
[--5-------------------------------------------5--------------------]
[--5-(x8)-7-------REPEAT THAT X3 THEN-THIS X1--5(x8)-7------9-------]
[--3------7-(x8)-------------------------------3-----7-(x4)-9 (x4)--]
[---------5------------------------------------------5------7-------]


tabbed by iinsanity101
Comments