Marilyn Manson - The Dope Show Chords & Tabs

 

The Dope Show Chords & Tabs

Marilyn Manson Chords & Tabs

Version: 3 Type: Bass Tab 0 ratings
1 star 2 stars 3 stars 4 stars 5 stars
comments

The Dope Show Bass Tab

   
DOPE SHOW 
                          As recorded by Marilyn Manson
                    (From the 1998 Album MECHANICAL ANIMALS)

Words by MANSON

Music by RAMIREZ
Standard Tuning (E A D G) 

  Q=89
  4/4
 
  E E E E E E E S S   E E +E  E +Q   E E
|-------------------|--------------------|
|-------------------|--------------------|
|-------------------|---5-(5)-3-(3)------|
|-0---0---0---3-0---|------------------3-|


  E E E E E E E S S   E E +E  E +Q   E E
|-------------------|---------------------|
|-------------------|---------------------|
|-------------------|---5-(5)-3-(3)-------|
|-0---0---0---3-0---|------------------3--|


  E E E E E E E S S   Q  E E +Q   E E   E E E E E E E S S   Q  E E +Q   E E
|-------------------|-----------------|-------------------|-----------------|
|-------------------|-----------------|-------------------|-----------------|
|-------------------|------3-(3)------|-------------------|------3-(3)------|
|-0---0---0---3-0---|---------------3-|-0---0---0---3-0---|---------------3-|


  E E E E E E E S S   Q  E E +Q   E E   E E E E E E E S S   Q  E E +Q   E E
|-------------------|-----------------|-------------------|-----------------|
|-------------------|-----------------|-------------------|-----------------|
|-------------------|------3-(3)------|-------------------|------3-(3)------|
|-0---0---0---3-0---|---------------3-|-0---0---0---3-0---|---------------3-|


  E E E E E E E S S   Q  E E +Q   E E   E E E E E E E S S   Q  E E +Q   E E
|-------------------|-----------------|-------------------|-----------------|
|-------------------|-----------------|-------------------|-----------------|
|-------------------|------3-(3)------|-------------------|------3-(3)------|
|-0---0---0---3-0---|---------------3-|-0---0---0---3-0---|---------------3-|


  E E E E E S S E E   E S S E E E E E E   E S S E E E S S E E   Q  E E E E Q
|-------------------|-0---0-0-0-0-----0-|---------------------|---------------|
|-2-----2-2---2---2-|-------------------|-0---0-0-0-0---0-0-0-|---------------|
|-------------------|-------------------|---------------------|-3--3-3-3------|
|-------------------|-------------------|---------------------|---------------|


  E S S E E E S S E E   E S S E E E E E E   E S S E E E S S +S  S E
|---------------------|-0---0-0---0---0-0-|-------------------------|
|-2---2---2-2---2---2-|-------------------|-0---0-0-0-0---0-(0)-----|
|---------------------|-------------------|-------------------------|
|---------------------|-------------------|-------------------------|


  E S S E E E S S Q    E E E E E E E S S   Q  E E +Q   E E   E E E E E E E S S
|--------------------|-------------------|-----------------|-------------------|
|--------------------|-------------------|-----------------|-------------------|
|-----3-3---3---3----|-------------------|------3-(3)------|-------------------|
|--------------------|-0---0---0---3-0---|---------------3-|-0---0---0---3-0---|


  Q  E E +Q   E E   E E E E E E E E   E E Q  Q  Q    E E E E E E E E
|-----------------|---------0-0---0-|-2------------|---------0-----0-|
|-----------------|-2-----2---------|--------0--0--|-2-----2---------|
|------3-(3)------|-----------------|--------------|-----------------|
|---------------3-|-----------------|--------------|-----------------|


  E E E E Q  Q    Q  E E E E E E   E E E E Q  Q    E S S +S  S E E E E E
|-2-----2-------|--------0-----0-|-2-----2-------|-----------------------|
|---------0-----|------2---------|---------0-----|-----2-(2)---2-0-----0-|
|---------------|----------------|---------------|-----------------------|
|---------------|----------------|---------------|-----------------------|


  E E Q  E E Q    E E E E E E E S S   Q  E E +Q   E E   E E E E E E E S S
|---------------|-------------------|-----------------|-------------------|
|---------------|-------------------|-----------------|-------------------|
|-3-------------|-------------------|------3-(3)------|-------------------|
|--------3---3--|-0---0---0---3-0---|---------------3-|-0---0---0---3-0---|


  Q  E E +Q   E E   E E E E E E E S S   Q  E E +Q   E E   E E E E E E E S S
|-----------------|-------------------|-----------------|-------------------|
|-----------------|-------------------|-----------------|-------------------|
|------3-(3)------|-------------------|------3-(3)------|-------------------|
|---------------3-|-0---0---0---3-0---|---------------3-|-0---0---0---3-0---|

[ Tab from: http://www.guitartabs.cc/tabs/m/marilyn_manson/the_dope_show_btab_ver_3.html ]
  Q  E E +Q   E E   E E E E E S S E E
|-----------------|-------------------|
|-----------------|-2-----2-2---2---2-|
|------3-(3)------|-------------------|
|---------------3-|-------------------|


  E S S E E E E E E   E S S E E E S S E E
|-0---0-0-0-0-----0-|---------------------|
|-------------------|-0---0-0-0-0---0-0-0-|
|-------------------|---------------------|
|-------------------|---------------------|


  Q  E E E E Q    E S S E E E S S E E   E S S E E E S S E E
|---------------|---------------------|-0---0-0---0---0---0-|
|---------------|-2---2---2-2---2---2-|---------------------|
|-3--3-3-3------|---------------------|---------------------|
|---------------|---------------------|---------------------|


  E S S E E E S S +S  S E   E S S E E E S S Q    E E E E E E E S S
|-------------------------|--------------------|-------------------|
|-0---0-0-0-0---0-(0)-----|--------------------|-------------------|
|-------------------------|-3---3-3---3---3----|-------------------|
|-------------------------|--------------------|-0---0---0---3-0---|


  Q  E E +Q   E E   E E E E E E E S S
|-----------------|-------------------|
|-----------------|-------------------|
|------3-(3)------|-------------------|
|---------------3-|-0---0---0---3-0---|


  Q  E E +Q   E E   E S S +S  S E E E E E
|-----------------|---------------0-0---0--|
|-----------------|-2---2-(2)---2----------|
|------3-(3)------|------------------------|
|---------------3-|------------------------|


  E E Q  Q  Q    E S S +S  S E E E E E   E E E E Q  Q    Q  E E E E E E
|-2------------|---------------0-----0-|-2-----2-------|--------0-----0-|
|--------0--0--|-2---2-(2)---2---------|---------0--0--|------2---------|
|--------------|-----------------------|---------------|----------------|
|--------------|-----------------------|---------------|----------------|


  E E E E Q  Q    Q  E E E E E E   E E Q  E E Q    E S S +S  S E E S S Q
|-2-----2-------|----------------|---------------|-------------------------|
|---------0-----|------2-0-----0-|---------------|-2---2-(2)---2-2---2-----|
|---------------|----------------|-3-------------|-------------------------|
|---------------|----------------|--------3---3--|-------------------------|


  E S S E E E S S E E   E S S E E E S S E E   Q  E E E S S Q
|-0---0-0-0-0---0---0-|---------------------|------------------|
|---------------------|-0---0-0-0-0---0-0---|------------------|
|---------------------|---------------------|-3--3---3---3-----|
|---------------------|---------------------|------------------|


  E E Q  E S S Q    E S S E E E S S E E   E E E E E S S +S  S E
|-----------------|-0---0-0---0---0---0-|------------------------|
|-2------2---2----|---------------------|-0---0-0-0---0-(0)------|
|-----------------|---------------------|------------------------|
|-----------------|---------------------|------------------------|


  E S S +S  S E E S S Q    E E E E E E E S S
|------------------------|-------------------|
|------------------------|-------------------|
|-3---3-(3)-----3---3----|-------------------|
|------------------------|-0---0---0---3-0---|


  Q  E E +Q   E E   E E E E E E E S S
|-----------------|--------------------|
|-----------------|--------------------|
|------3-(3)------|--------------------|
|---------------3-|-0---0---0---3-0----|


  Q  E E +Q   E E   E E E E E E E S S   E E +E  E +Q   E E   E E E E E E E S S
|-----------------|-------------------|--------------------|-------------------|
|-----------------|-------------------|--------------------|-------------------|
|------3-(3)------|-------------------|---5-(5)-3-(3)------|-------------------|
|---------------3-|-0---0---0---3-0---|------------------3-|-0---0---0---3-0---|


  E E +E  E +Q   E E
|-----------------------*|
|-----------------------*|
|---5-(5)-3-(3)---------*|
|------------------3----*|


Duration Legend
---------------
W - whole; H - half; Q - quarter; E - 8th; S - 16th; T - 32nd; X - 64th; a - acciaccatura
+ - note tied to previous; . - note dotted; .. - note double dotted
Uncapitalized letters represent notes that are staccato (1/2 duration)
Irregular groupings are notated above the duration line
Duration letters will always appear directly above the note/fret number it represents the
duration for.  Duration letters with no fret number below them represent rests.  Multi-
bar rests are notated in the form Wxn, where n is the number of bars to rest for.  Low
melody durations appear below the staff

Tablature Legend
----------------
 h   - hammer-on
 p   - pull-off
 b   - bend
 pb  - pre-bend
 r   - bend release (if no number after the r, then release immediately)
 /\  - slide into or out of (from/to "nowhere")
 s   - legato slide
 S   - shift slide
  - natural harmonic
[n]  - artificial harmonic
n(n) - tapped harmonic
 ~   - vibrato
 tr  - trill
 T   - tap
 TP  - trem. picking
 PM  - palm muting
\n/  - tremolo bar dip; n = amount to dip
 \n  - tremolo bar down
 n/  - tremolo bar up
/n\  - tremolo bar inverted dip
 =   - hold bend; also acts as connecting device for hammers/pulls
 <>  - volume swell (louder/softer)
 x   - on rhythm slash represents muted slash
 o   - on rhythm slash represents single note slash

Misc Legend
-----------
 |  - bar
||  - double bar
||o - repeat start
o|| - repeat end
*|  - double bar (ending)
 :  - bar (freetime)
 $  - Segno
 &  - Coda
Tempo markers -  = BPM(8/16=s8/s16), where s8 = swing 8ths, s16 = swing 16ths
Comments