Marilyn Manson - Tainted Love Chords & Tabs

 

Tainted Love Chords & Tabs

Marilyn Manson Chords & Tabs

Version: 6 Type: Tab

Tainted Love Tab

-------------------------------------------------------------------------------
			     Tainted Love - Marilyn Manson
-------------------------------------------------------------------------------
Tabbed by: bloodred16
Email: happytreefriends_firstblood@hotmail.com

okay i know this may seem weird compared to the others since they're all in
standard tuning, but that's cuz that's a synth part! This is the actual guitar
part!  It's very easy to play and awesome to play along to so have fun! Enjoi...

Tuning: Tune down (G-D-Bb-F-C-G)- from 1st to 6th string!!!

Intro
there's some sort of effects then a four bar synth before this
e|---------------------------------------------------------------------------|
B|---------------------------------------------------------------------------|
G|9--9-----------------------------------------------------------------------|
D|9--9-----------------------------------------------------------------------|
A|7--7-----------------------------------------------------------------------|
E|------7\-(x4)--------------------------------------------------------------|

Verse
e|---------------------------------------------------------------------------|
B|---------------------------------------------------------------------------|
G|9--9-----------------------------------------------------------------------|
D|9--9-----------------------------------------------------------------------|
A|7--7-----------------------------------------------------------------------|
E|------7\-(x8)--------------------------------------------------------------|

Pre-chorus
"Once I ran to you..."
e|---------------------------------------------------------------------------|
B|---------------------------------------------------------------------------|
G|9--9-9-9------9--9-9-9-----------------------------------------------------|
D|9--9-9-9------9--9-9-9------5---5-5------5---5-5---------------------------|
A|7--7-7-7------7--7-7-7------5---5-5------5---5-5---------------------------|
E|----------0-0-----------0-0-3---3-3--0-0-3---3-3--0-0----------------------|
            PM|           PM|          PM|          PM|
[ Tab from: http://www.guitartabs.cc/tabs/m/marilyn_manson/tainted_love_tab_ver_6.html ]
e|---------------------------------------------------------------------------|
B|---------------------------------------------------------------------------|
G|5---5-5------5---5-5-------------------------------------------------------|
D|5---5-5------5---5-5------7---7-7------7---7-7------7---7-7------7---7-7---|
A|3---3-3------3---3-3------7---7-7------7---7-7------7---7-7------7---7-7---|
E|---------0-0----------0-0-5---5-5--0-0-5---5-5--0-0-5---5-5--0-0-5---5-5-00|
           PM|          PM|          PM|          PM|          PM|         PM
Chorus
"Tainted love. Tainted love"
e|---------------------------------------------------------------------------|
B|---------------------------------------------------------------------------|
G|9--9---------9--9----------------------------------------------------------|
D|9--9---------9--9----------------------------------------------------------|
A|7--7---------7--7----------------------------------------------------------|
E|------7\-----------7\------------------------------------------------------|

Verse (x8)
Pre-chorus
Chorus

Middle
e|---------------------------------------------------------------------------|
B|---------------------------------------------------------------------------|
G|9--9---------9--9----------------------------------------------------------|
D|9--9---------9--9----------------------------------------------------------|
A|7--7---------7--7----------------------------------------------------------|
E|---------------------------------------------------------------------------|

then he sings "Don't touch me please..."
and on "love you though you..."
e|---------------------------------------------------------------------------|
B|---------------------------------------------------------------------------|
G|9--9---------9--9----------------------------------------------------------|
D|9--9---------9--9----------------------------------------------------------|
A|7--7---------7--7----------------------------------------------------------|
E|------7\-----------7\------------------------------------------------------|

"Touch me baby tainted love"
e|---------------------------------------------------------------------------|
B|---------------------------------------------------------------------------|
G|9--9-----------------------------------------------------------------------|
D|9--9-----------------------------------------------------------------------|
A|7--7-----------------------------------------------------------------------|
E|------7\-(x4)--------------------------------------------------------------|

Pre-chorus
Chorus (x2)

| /  slide up
|PM  Palm Mute
===============================================================================