Marilyn Manson - Tainted Love Chords & Tabs

 

Tainted Love Chords & Tabs

Marilyn Manson Chords & Tabs

Version: 4 Type: Tab 0 ratings
1 star 2 stars 3 stars 4 stars 5 stars
comments

Tainted Love Tab

Standard tuning: (EGBDAE)

This song is very simple to play, you may need 2
guitars but I play it on one.

There is only really 3 parts two the song:

riff 1                              riff 2(guitar 2)
|-------- Play this    meanwhile... |----------------------
|-------- about 8                   |----------4444--------
|-------- times in                  |-0000-3333------33-5--
|--5-5--- the verses.               |----------------------
|--5-5---                           |----------------------
|--3-3---                           |----------------------

[ Tab from: http://www.guitartabs.cc/tabs/m/marilyn_manson/tainted_love_tab_ver_4.html ]
riff 3-Chorus
|--------------------------------------------------------------
|--------------------------------------------------------------
|-------------------------------888888---88888-555555---555555-
|-555555-x-55555-888888-x-88888-888888-x-88888-555555-x-555555-
|-555555-x-55555-888888-x-88888-666666-x-66666-333333-x-333333-
|-333333-x-33333-666666-x-66666--------x--------------x--------

|---------------------
|---------------------
|-55555-x-5555555-----
|-55555-x-5555555-5-5-
|-33333-x-3333333-5-5-
|-----------------3-3-


If you want to play it on one guitar(like me)you would play it
like this:

|------------------------
|----------4444----------
|-----3333------33-5-----
|-5-5----------------5-5-
|-5-5----------------5-5-
|-3-3----------------3-3-

and so on...

This sounds perfect to me, when I play it with the song.
Comments