Marilyn Manson - Sweet Dreams Chords & Tabs

 

Sweet Dreams Chords & Tabs

Marilyn Manson Chords & Tabs

Version: 9 Type: Tab 0 ratings
1 star 2 stars 3 stars 4 stars 5 stars
comments

Sweet Dreams Tab

one of the few songs i like of manson but oh wll here it is.
song: sweet dreams
Artist: manson
Main Riff (Riff 1)
1------------------------------------------
2------------------------------------------
3------------------------------------------
4-------5----6---5-------------------------
5---3-3---3----3---3----6/8----5/6---------
6--------------------44-----33-------------
Riff2:
1--------------------------|
2--------------------------|
3--5555555-----------------|
4--5555555---6-6--5--------|
5--3333333---6-6--5--------|
6------------4-4--3--------|
Riff 3:
1-------------------------------------------------------
2-------------------------------------------------------
3--------------------555555555--------------------------
4--6666666666666--5--555555555----666666666---5---------
5--6666666666666--5--333333333----666666666---5---------
6--4444444444444--3---------------444444444---3---------
[ Tab from: http://www.guitartabs.cc/tabs/m/marilyn_manson/sweet_dreams_tab_ver_9.html ]
1-------------------------------------------------------
2-------------------------------------------------------
3-------------------------------------------------------
4---66666666-----555555555------------------------------
5---66666666-----555555555------------------------------
6---44444444-----333333333------------------------------
This is the riff right after the first chorus with the wah in it. i like to use my digitech rp200 on this part.
1-------------------------------------------------------
2-------------------------------------------------------
3-------------------------------------------------------
4----------5---6----------------------------------------
5------3-3---3---3-------6/8-------5/6------------------
6--------------------4-4------3-3-----------------------

1-----------------------------------------------
2-----------------------------------------------
3-----------3--3-------------------3--3---------
4--5--3--5--------Play-2X--5--3--5--------5-----
5-----------------------------------------------
6-----------------------------------------------

Solo:
1--6---8--11--6--8--6-------------------
2----------------------7----------------
3-------------------------5-3-5---------
4---------------------------------3-----
5---------------------------------------
6---------------------------------------

1------------------------------------------
2------------------------------3--4--------
3--------5--------------5---5--------------
4---3--5----------3--3---------------------
5-----------3--5---------------------------
6------------------------------------------

1-----------------6---8--6---11--13---14--------
2----3---6----6--------------------------13-----
3-----------------------------------------------
4-----------------------------------------------
5-----------------------------------------------
6-----------------------------------------------
Comments