Marilyn Manson - Sweet Dreams Chords & Tabs

 

Sweet Dreams Chords & Tabs

Marilyn Manson Chords & Tabs

Version: 7 Type: Tab 0 ratings
1 star 2 stars 3 stars 4 stars 5 stars
comments

Sweet Dreams Tab

Artist: Marilyn Manson
Song: Sweet Dreams
Tabbed by: Kris Senti (itskrls@aol.com) 


          main riff: [0:03]
e|-------------------------------|
B|-------------------------------|
G|-------------------------------|
D|-----4---5---4-----------------|
A|-2-2---2---2--------4/5----3/4-|
E|---------------3-3------2-2----|
[ Tab from: http://www.guitartabs.cc/tabs/m/marilyn_manson/sweet_dreams_tab_ver_7.html ]
          chorus: [0:56]
e|--------------------------------------------------------------------->
B|--------------------------------------------------------------------->
G|-----------------------6-6-6-6-6-6-6-6------------------------------->
D|-7-7-7-7-7-7-7-7-7-7-6-6-6-6-6-6-6-6-6-7-7-7-7-7-7-7\6/7-7-7-7-7-7-7->
A|-7-7-7-7-7-7-7-7-7-7-6-4-4-4-4-4-4-4-4-7-7-7-7-7-7-7\6/7-7-7-7-7-7-7->
E|-5-5-5-5-5-5-5-5-5-5-4-----------------5-5-5-5-5-5-5\4/5-5-5-5-5-5-5->

<-----------------|
<-----------------|                                                    
<-----------------|
<-6-6-6-6-6-6-6-6-|
<-6-6-6-6-6-6-6-6-|
<-4-4-4-4-4-4-4-4-|

riff 2  [1:53 - 2:13]
e|------------|
B|------------|
G|-6----------|
D|-6---7---6--|
A|-4---7---6--|  
E|-----5---4--|

riff 3 [2:14]
e|---------------------------------------------------|
B|------3^------3^------3^-----7^------3^-----3^-----|
G|5-3-5----5-3-5---5-3-5--5-3-5---5-3-5--5-3-5---(5)-|
D|---------------------------------------------------|
A|---------------------------------------------------|
E|---------------------------------------------------|

solo [2:49]
   sorry.. solo's = not for me




Comments