Marilyn Manson - Sweet Dreams Chords & Tabs

 

Sweet Dreams Chords & Tabs

Marilyn Manson Chords & Tabs

Version: 4 Type: Tab 2 ratings
1 star 2 stars 3 stars 4 stars 5 stars
comments

Sweet Dreams Tab

#----------------------------------PLEASE NOTE---------------------------------#
#This file is the author's own work and represents their interpretation of the #
#song. You may only use this file for private study, scholarship, or research. #
#------------------------------------------------------------------------------#

Marylin Manson - Sweet dreams





Band: Marlilyn Manson
Song: Sweet Drams (Eurythmics Cover)
Tabbed by: Alex


1.)Unidentified Sound for 5 seconds

2.)Intro

E||------------------|-------------------|-------------------|-------------------|
B||------------------|-------------------|-------------------|-------------------|
G||------------------|-------------------|-------------------|-------------------|
D||----------5-------|--6-------5--------|-------------------|-------------------|  2x
A||--3---3-------3---|------3-------3----|----------5---6----|----------3---5----|
E||------------------|-------------------|--4---4------------|--3---3------------|

3.)Verse 1 (reapeat the intro all the time)

Sweet Dreams are made of these ...

4.)Chorus (intro reapeated)

Some of them want to use you ect ...


5a.)Guitar Part (plus drum)

e|------------------|------------------|------------------|------------------|
B|------------------|------------------|------------------|------------------|
G|------------------|------------------|------------------|--------------5---|
D|--6---6---6---6---|--6---6---6---6---|--6---6---6---6---|--6---5---5---5---|
A|--6---6---6---6---|--6---6---6---6---|--6---6---6---6---|--6---5---5---3---|
E|--4---4---4---4---|--4---4---4---4---|--4---4---4---4---|--4---3---3-------|


e|------------------|------------------|------------------|------------------|
B|------------------|------------------|------------------|------------------|
G|--5---5---5---5---|--5---5---5---5---|--5---5---5---5---|------------------|
D|--5---5---5---5---|--5---5---5---5---|--6---6---6---6---|--6---6---6---5---|
A|--3---3---3---3---|--3---3---3---3---|--6---6---6---6---|--6---6---6---5---|
E|------------------|------------------|--4---4---4---4---|--4---4---4---3---|


e|------------------|------------------|------------------|------------------|
B|------------------|------------------|------------------|------------------|
G|------------------|------------------|------------------|------------------|
D|--6---6---6---6---|--6---6---6---6---|--5---5---5---5---|--5---5---5---5---|
A|--6---6---6---6---|--6---6---6---6---|--5---5---5---5---|--5---5---5---5---|
E|--4---4---4---4---|--4---4---4---4---|--3---3---3---3---|--3---3---3---3---|

[ Tab from: http://www.guitartabs.cc/tabs/m/marilyn_manson/sweet_dreams_tab_ver_4.html ]
5b.)Guitar-part(with wahwah!!)
E|-----------------------------------------------------------------|
B|-----------------------------------------------------------------|
G|-----------------------------------------------------------------|
D|----------5-------6-------5--------------------------------------|  4x
A|--3---3-------3-------3-------3-----------5---6-----------3---5--|
E|----------------------------------4---4-----------3---3----------|

6.)Verse 2 (Intro repeated)

Sweet Dreams are made of these

7.)Chorus(Intro reapeated)

Some of them want to use you ect...


8a.)BRIDGE (part for guitar)

|------------------|------------------|------------------|------------------|
|--------------3b--|--------------7b--|--------------3b--|--------------7b--|
|--5---3---5-------|--5---3---5-------|--5---3---5-------|--5---3---5-------|
|------------------|------------------|------------------|------------------|
|------------------|------------------|------------------|------------------|
|------------------|------------------|------------------|------------------|

|------------------|------------------|------------------|------------------|
|--------------3b--|--------------7b--|------------------|------------------|
|--5---3---5-------|--5---3---5-------|---5~~~-----------|------------------|
|------------------|------------------|------------------|------------------|
|------------------|------------------|------------------|------------------|
|------------------|------------------|------------------|------------------|

8b.)BRIDGE (per for drum + vocal)

I wanna use you...


9.)SOLO

|--6---8---11---6--|--8---6~------------|------------------|------------------|
|------------------|-----------7--------|------------------|------------------|
|------------------|--------------------|--5---3---5-------|------------------|
|------------------|--------------------|--------------3---|--3---5---3---5---|
|------------------|--------------------|------------------|------------------|
|------------------|--------------------|------------------|------------------|

|------------------|--------------------|------------------|------------------|
|------------------|--------------------|------------------|------------------|
|------------------|--------------------|----------3---3---|--5---6---5---5---|
|--3---5-----------|--3-----3--3--3--3--|--5---6-----------|------------------|
|----------3---5---|--------------------|------------------|------------------|
|------------------|--------------------|------------------|------------------|

|------------------|-------6---8---6----|--11---13---14b-------|
|--3---4---3---6---|--6b----------------|-----------------13~--|
|------------------|--------------------|----------------------|
|------------------|--------------------|----------------------|
|------------------|--------------------|----------------------|
|------------------|--------------------|----------------------|

10.)VERSE 3 (only Drums and keyboard)

Lick arranged for guitar:

e|--3------|---------|---------|---------|
B|------1--|---------|----4----|----3----|
G|---------|---------|---------|---------|
Comments