Marilyn Manson - Sweet Dreams Chords & Tabs

 

Sweet Dreams Chords & Tabs

Marilyn Manson Chords & Tabs

Version: 11 Type: Tab 0 ratings
1 star 2 stars 3 stars 4 stars 5 stars
comments

Sweet Dreams Tab

first thing a saw a tab of this song and it sais:
"this part is solo!"
he meens the start of the song,and its not solo of the song!
i would like to change the mistake:

s=slide up

|----------------------------------------
|----------------------------------------
|----------------------------------------
|---------5---6---5----------------------   
|----3--3---3---3---3-------6s8-------5s6
|----------------------4--4------3--3----

just listen to the song youll get it its very very easy!
I dont have time to listen to the song and write how meany times u have to play that part!
here comes the intro:


|-----------------------------
|-----------------------------
|-----------------------------
|6-6-6-6-6-6-6-6-6-6-6-6-6-5-5 its not all:
|6-6-6-6-6-6-6-6-6-6-6-6-6-5-5      V
|4-4-4-4-4-4-4-4-4-4-4-4-4-3-3

-----------------------------
-----------------------------
-5-5-5-5-5-5-5-5-------------     its not all:
-5-5-5-5-5-5-5-5-------------        
-3-3-3-3-3-3-3-3-------------        V
-----------------------------
[ Tab from: http://www.guitartabs.cc/tabs/m/marilyn_manson/sweet_dreams_tab_ver_11.html ]
----------------------------------------
----------------------------------------
----------------------------------------
-6-6-6-6-6-6-6-5-6-6-6-6-6-6-6-6-5-5-5-5
-6-6-6-6-6-6-6-5-6-6-6-6-6-6-6-6-5-5-5-5
-4-4-4-4-4-4-4-3-4-4-4-4-4-4-4-4-3-3-3-3

|-----------------------------------------
|-----------------------------------------
|-----------------------------------------
|----------5----6----5--------------------
|-----3--3----3----3---3------6s8------5s6
|------------------------4--4-----3--3----

u need in this part a cry baby wawa!
its a special efect sound!
its like the hole song,this part they have a 2 guitar that douse:

|------------
|------------
|---5--------
|---5---6---5
|---3---6---5
|-------4---3

He plays it over and over just listen to the song!
The solo i don't know i'll write it another time i have to listen to the song again!
See yaa!
me name is John, im 13 years old & if u have questions about any song of Manson send 
me a message on ICQ no.:136314377 Im a fan of Marilyn Manson 7 years & i know 20 song 
of Manson on the guitar so u can trust me! :) i learn 5 years guitar!
Comments