Marilyn Manson - Sweet Dreams Chords & Tabs

 

Sweet Dreams Chords & Tabs

Marilyn Manson Chords & Tabs

Version: 6 Type: Bass Tab 0 ratings
1 star 2 stars 3 stars 4 stars 5 stars
comments

Sweet Dreams Bass Tab

      Sweet Dreams                                   


                                                                              
-------------------|------------------|-------------------|------------------|
-------------------|------------------|-------------------|------------------|
--3----------------|------------------|--3----------------|------------------|
-------------------|------------------|-------------------|------------------|


                                                                              
-------------------|------------------|-------------------|------------------|
-------------------|------------------|-------------------|------------------|
--3----------------|------------------|--3----------------|------------------|
-------------------|------------------|-------------------|------------------|


                                                      
--------------------------|--------------------------|
--------------------------|--------------------------|
--------------------------|--------------------------|
--4--4--4--4--4--4--4--4--|--4--4--4--4--4--3--3--3--|


                                                      
--------------------------|--------------------------|
--------------------------|--------------------------|
--3--3--3--3--3--3--6--6--|--------------------------|
--------------------------|--4--4--4--4--4--4--4--3--|


                                                                          
--------------------------|--------------------------|-------------------|
--------------------------|--------------------------|-------------------|
--------------------------|--------------------------|--3----------------|
--4--4--4--4--4--4--4--4--|--3--3--3--3--3--3--3--3--|-------------------|


                                                              
--------------------|-------------------|--------------------|
--------------------|-------------------|--------------------|
--------------------|--3----------------|--------------------|
--4--------3--------|-------------------|--4--------3--------|


                                                             
-------------------|--------------------|-------------------|
-------------------|--------------------|-------------------|
--3----------------|--------------------|--3----------------|
-------------------|--4--------3--------|-------------------|


                                                              
--------------------|-------------------|--------------------|
--------------------|-------------------|--------------------|
--------------------|--3----------------|--------------------|
--4--------3--------|-------------------|--4--------3--------|


                                                             
-------------------|--------------------|-------------------|
-------------------|--------------------|-------------------|
--3----------------|--------------------|--3----------------|
-------------------|--4--------3--------|-------------------|


                                                              
--------------------|-------------------|--------------------|
--------------------|-------------------|--------------------|
--------------------|--3----------------|--------------------|
--4--------3--------|-------------------|--4--------3--------|


                                                             
-------------------|--------------------|-------------------|
-------------------|--------------------|-------------------|
--3----------------|--------------------|--3----------------|
-------------------|--4--------3--------|-------------------|


                                                              
--------------------|-------------------|--------------------|
--------------------|-------------------|--------------------|
--------------------|--3----------------|--------------------|
--4--------3--------|-------------------|--4--------3--------|


                                                                    
-------------------|--------------------|--------------------------|
-------------------|--------------------|--------------------------|
--3----------------|--------------------|--------------------------|
-------------------|--4--------3--------|--4--4--4--4--4--4--4--4--|


                                                      
--------------------------|--------------------------|
--------------------------|--------------------------|
--------------------------|--3--3--3--3--3--3--6--6--|
--4--4--4--4--4--3--3--3--|--------------------------|


                                                      
--------------------------|--------------------------|
--------------------------|--------------------------|
--------------------------|--------------------------|
--4--4--4--4--4--4--4--3--|--4--4--4--4--4--4--4--4--|

[ Tab from: http://www.guitartabs.cc/tabs/m/marilyn_manson/sweet_dreams_btab_ver_6.html ]
                                                                   
--------------------------|-------------------|-------------------|
--------------------------|-------------------|--6----------------|
--------------------------|--3----------------|-------------------|
--3--3--3--3--3--3--3--3--|-------------------|-------------------|


                                                                                
-------------------|-------------------|-------------------|-------------------|
-------------------|--6----------------|-------------------|--6----------------|
--3----------------|-------------------|--3----------------|-------------------|
-------------------|-------------------|-------------------|-------------------|


                                                                     
-------------------|---------------------|--------------------------|
-------------------|--6--6--6------------|--------------------------|
--3----------------|---------------------|--3--3--3--3--3--3--3--3--|
-------------------|---------------------|--------------------------|


                                                      
--------------------------|--------------------------|
--------------------------|--------------------------|
--------------------------|--3--3--3--3--3--3--3--3--|
--4--4--4--4--3--3--3--3--|--------------------------|


                                                      
--------------------------|--------------------------|
--------------------------|--------------------------|
--------------------------|--3--3--3--3--3--3--3--3--|
--4--4--4--4--3--3--3--3--|--------------------------|


                                                      
--------------------------|--------------------------|
--------------------------|--------------------------|
--------------------------|--3--3--3--3--3--3--3--3--|
--4--4--4--4--3--3--3--3--|--------------------------|


                                                                  
--------------------------|-------------------|------------------|
--------------------------|-------------------|------------------|
--------------------------|--3----------------|------------------|
--4--4--4--4--3--3--3--3--|-------------------|------------------|


                                                                            
------------------|------------------|------------------|------------------|
------------------|------------------|------------------|------------------|
------------------|------------------|------------------|------------------|
------------------|------------------|------------------|------------------|


                                                                               
------------------|------------------|-------------------|--------------------|
------------------|------------------|-------------------|--------------------|
------------------|------------------|--3----------------|--------------------|
------------------|------------------|-------------------|--4--------3--------|


                                                             
-------------------|--------------------|-------------------|
-------------------|--------------------|-------------------|
--3----------------|--------------------|--3----------------|
-------------------|--4--------3--------|-------------------|


                                                              
--------------------|-------------------|--------------------|
--------------------|-------------------|--------------------|
--------------------|--3----------------|--------------------|
--4--------3--------|-------------------|--4--------3--------|


                                                      
--------------------------|--------------------------|
--------------------------|--------------------------|
--------------------------|--------------------------|
--4--4--4--4--4--4--4--4--|--4--4--4--4--4--3--3--3--|


                                                      
--------------------------|--------------------------|
--------------------------|--------------------------|
--3--3--3--3--3--3--6--6--|--------------------------|
--------------------------|--4--4--4--4--4--4--4--3--|


                                                      
--------------------------|--------------------------|
--------------------------|--------------------------|
--------------------------|--------------------------|
--4--4--4--4--4--4--4--4--|--3--3--3--3--3--3--3--3--|


                                                      
--------------------------|--------------------------|
--------------------------|--------------------------|
--------------------------|--------------------------|
--4--4--4--4--4--4--4--4--|--3--3--3--3--3--3--3--3--|


                                                                    
--------------------------|--------------------|-------------------|
--------------------------|--------------------|-------------------|
--3--3--3--3--3--3--3--3--|--------------------|--3----------------|
--------------------------|--4--------3--------|-------------------|


                                       
------------------|------------------||
------------------|------------------||
------------------|------------------||
------------------|------------------||      





bass notes during the interlude are played on a keyboard
Comments