Marilyn Manson - Sweet Dreams Chords & Tabs

 

Sweet Dreams Chords & Tabs

Marilyn Manson Chords & Tabs

Version: 3 Type: Bass Tab 0 ratings
1 star 2 stars 3 stars 4 stars 5 stars
comments

Sweet Dreams Bass Tab

riff 1
(intro)
no notes played until manson sings:
"some of them whant to use you"
|33333333|--------|33333333|--------|3-------|
|--------|--------|--------|--------|-----4-3|
|--------|--------|--------|--------|--------|
|--------|--------|--------|--------|--------|

riff 2
|33333333|333333--|-----33-|--------|--------|-----|
|--------|------44|33333--4|44444434|44444443|33333|
|--------|--------|--------|--------|--------|-----|
|--------|--------|--------|--------|--------|-----|

riff 3
|3-------|--------|3-------|--------|3-------|--------|
|--------|4---3---|--------|4---3---|--------|4---3---|
|--------|--------|--------|--------|--------|--------|
|--------|--------|--------|--------|--------|--------|
repeat this a lod of times till the end of the coruse
then repete riff 2

|33333333|333333--|-----33-|--------|--------|-----|
|--------|------44|33333--4|44444434|44444443|33333|
|--------|--------|--------|--------|--------|-----|
|--------|--------|--------|--------|--------|-----|

and then repete riff 3 again till manson stops singing
"keep your head up moveing on"
[ Tab from: http://www.guitartabs.cc/tabs/m/marilyn_manson/sweet_dreams_btab_ver_3.html ]
|3-------|--------|3-------|--------|3-------|--------|
|--------|4---3---|--------|4---3---|--------|4---3---|
|--------|--------|--------|--------|--------|--------|
|--------|--------|--------|--------|--------|--------|

then it riff 4
riff 4
|33333333|--------|33333333|--------|
|--------|44443333|--------|44443333|
|--------|--------|--------|--------|
|--------|--------|--------|--------|

then its the gitar solo

then its back to riff 3

|3-------|--------|3-------|--------|3-------|--------|
|--------|4---3---|--------|4---3---|--------|4---3---|
|--------|--------|--------|--------|--------|--------|
|--------|--------|--------|--------|--------|--------|

keep playing this till manson sings
"i wana use you and abouse you"
and play riff 2

|33333333|333333--|-----33-|--------|--------|-----|
|--------|------44|33333--4|44444434|44444443|33333|
|--------|--------|--------|--------|--------|-----|
|--------|--------|--------|--------|--------|-----|

riff 5
|33333333|--------|--------|---3----|--------|
|--------|44444444|33333333|--------|4----3--|END
|--------|--------|--------|--------|--------|
|--------|--------|--------|--------|--------|

tink thats it any way tell us if it aint!
Comments