Marilyn Manson - Sweet Dreams Chords & Tabs

 

Sweet Dreams Chords & Tabs

Marilyn Manson Chords & Tabs

Version: 1 Type: Bass Tab 0 ratings
1 star 2 stars 3 stars 4 stars 5 stars
comments

Sweet Dreams Bass Tab

"Sweet Dreams (Are Made Of This)" 
Marilyn Manson's cover version 
Tabbed by Damian (damian.pamminger@thedoghousemail.com) 

/=slide up 
\=slide down 

Intro: 
G:---------------------------------------------| 
D:---------------------------------------------| 
A:---------------------------------------------| 
E:-8----------8----------8----------8----------| 

Chorus: 
G:---------------------------------------------------------------------- 
D:---------------------------------------------------------------------- 
A:-----------------------------------3-3-3-3-3-3/-6-6------------------- 
E:-4-4-4-4-4-4-4-4-4-4-4-4-4--3-3-3--------------------4-4-4-4-4-4-4-4-- 

G:-------------------------------------| 
D:-------------------------------------| 
A:-------------------------------------| 
E:-3--4-4-4-4-4-4-4-4--3-3-3-3-3-3-3-3-| 

Fill:(right after 1st chorus) 
G:------------------------------------------------------| 
D:------------------------------------------------------| 
A:------------------------------------------------------| 
E:-8----------4-----3-----3/-8----------4------3-----3/-| 

Verse/Under guitar solo: 
G:-------------------------------------| 
D:-------------------------------------| 
A:-------------------------------------| 
E:-8-8-8-8-8-8-8-8--4-4-4-4--3-3-3-3-/-| 
[ Tab from: http://www.guitartabs.cc/tabs/m/marilyn_manson/sweet_dreams_btab.html ]
Prechorus:("Some of them..") 
G:--------------------------------------------------------------| 
D:--------------------------------------------------------------| 
A:-----------10\--------------------------10\-------------------| 
E:-8----------------4-----3----3/-8--------------4-----3/-10-11-| 

Bridge: ("Keep your head up, movin' on..") 
G:--------------------------------------------------------------------- 
D:--------------------------------------------------------------------- 
A:--------------------------------------------------------------------- 
E:-8----8-/-16----16-\-8----8-/-16----16-\-8----8-/-16----16\--8----8\- 

G:--------| 
D:--------| 
A:--------| 
E:-4-4-4\-| 

Outro chorus: 
G:--------------------------------------------------------------------- 
D:--------------------------------------------------------------------- 
A:-----------------------------------3-3-3-3-3-3/-6-6------------------ 
E:-4-4-4-4-4-4-4-4-4-4-4-4-4--3-3-3--------------------4-4-4-4-4-4-4-4- 

G:---------------------------------------------------------------------- 
D:---------------------------------------------------------------------- 
A:---------------------------------------------------------------------- 
E:-3--4-4-4-4-4-4-4-4--3-3-3-3-3-3-3-3--4-4-4-4-4-4-4-4--3-3-3-3-3-3-3-- 

G:---------------------------------| 
D:---------------------------------| 
A:-3-3-3-3-3-3-3-3-----------------| 
E:-------------------4----3------8-| 

Song structure: 
Intro 
Chorus 
Fill 
Verse 
Prechorus 
Chorus 
Bridge 
Guitar solo 
Break 
Prechorus 
Outro chorus


Comments