Marilyn Manson - Rock Is Dead Chords & Tabs

 

Rock Is Dead Chords & Tabs

Marilyn Manson Chords & Tabs

Version: 4 Type: Tab 0 ratings
1 star 2 stars 3 stars 4 stars 5 stars
comments

Rock Is Dead Tab

   
Song: Rock Is Dead
Artist: Marilyn Manson



riff A
E|-----------------------------------------|
B|------4-----------4-----------4----------|
G|------4-----------4-----------4----------|
D|-4-4-------X-4-4-------X-4-4-------X-4-7-| X4
A|-4-4-------X-4-4-------X-4-4-------X-4-7-|
E|-2-2-------X-2-2-------X-2-2-------X-2-5-|


Pre-Chrous Riff:
E|-------------------|
B|-------------------|
G|-------------------|
D|-7-----10------12--| X2
A|-7-----10------10--|
E|-5------8------10--|


Chorus Riff:
E|----------------------------------------------------------------------|
B|----------------------------------------------------------------------|
G|----------------------------------------------------------------------|
D|--11--9/11\9---11--9/11\9---9--7/9\7---9--7/9\7---7--6/7\6---7--6/7\6-|
A|---9--7/ 9\7----9--7/ 9\7---7--5/7\5---7--5/7\5---5--4/5\4---5--4/5\4-|
E|----------------------------------------------------------------------|
    "rock...is deader than dead
E|-------------------------|
B|-------------------------|
G|-------------------------|
D|-6-6-6-6-6-6-9-9-9-9-9-9-|
A|-4-4-4-4-4-4-7-7-7-7-7-7-|
E1-------------------------|


riff A
E|-----------------------------------------|
B|------4-----------4-----------4----------|
G|------4-----------4-----------4----------|
D|-4-4-------X-4-4-------X-4-4-------X-4-7-| X4
A|-4-4-------X-4-4-------X-4-4-------X-4-7-|
E|-2-2-------X-2-2-------X-2-2-------X-2-5-|



e--x-x-x-x-x-x--
b--x-x-x-x-x-x--
g--x-x-x-x-x-x--
d--x-x-x-x-x-x--
a--x-x-x-x-x-x--
D--x-x-x-x-x-x--




Pre-Chrous Riff:
E|-------------------|
B|-------------------|
G|-------------------|
D|-7-----10------12--| X2
A|-7-----10------10--|
E|-5------8------10--|

[ Tab from: http://www.guitartabs.cc/tabs/m/marilyn_manson/rock_is_dead_tab_ver_4.html ]
Chorus Riff:
E|----------------------------------------------------------------------|
B|----------------------------------------------------------------------|
G|----------------------------------------------------------------------|
D|--11--9/11\9---11--9/11\9---9--7/9\7---9--7/9\7---7--6/7\6---7--6/7\6-|
A|---9--7/ 9\7----9--7/ 9\7---7--5/7\5---7--5/7\5---5--4/5\4---5--4/5\4-|
E|----------------------------------------------------------------------|
    
E|-------------------------|
B|-------------------------|
G|-------------------------|
D|-6-6-6-6-6-6-9-9-9-9-9-9-|
A|-4-4-4-4-4-4-7-7-7-7-7-7-|
E1-------------------------|



riff A
E|-----------------------------------------|
B|------4-----------4-----------4----------|
G|------4-----------4-----------4----------|
D|-4-4-------X-4-4-------X-4-4-------X-4-7-| X4
A|-4-4-------X-4-4-------X-4-4-------X-4-7-|
E|-2-2-------X-2-2-------X-2-2-------X-2-5-|


Pre-Chrous Riff:
E|-------------------|
B|-------------------|
G|-------------------|
D|-7-----10------12--| X2
A|-7-----10------10--|
E|-5------8------10--|

e--x-x-x-x-x-x--|
b--x-x-x-x-x-x--|
g--x-x-x-x-x-x--|
d--x-x-x-x-x-x--|
a--x-x-x-x-x-x--|
D--x-x-x-x-x-x--|

Chorus Riff:
E|----------------------------------------------------------------------|
B|----------------------------------------------------------------------|
G|----------------------------------------------------------------------|
D|--11--9/11\9---11--9/11\9---9--7/9\7---9--7/9\7---7--6/7\6---7--6/7\6-| X2
A|---9--7/ 9\7----9--7/ 9\7---7--5/7\5---7--5/7\5---5--4/5\4---5--4/5\4-|
E|----------------------------------------------------------------------|

E|-------------------------|
B|-------------------------|
G|-------------------------|
D|-6-6-6-6-6-6-9-9-9-9-9-9-|
A|-4-4-4-4-4-4-7-7-7-7-7-7-|
E1-------------------------|



well i think this is it, im not sure that its all correct,
but it sounds cool

my e-mail: mmetal7@hotmail.com

      MEHDI 
         
Comments