Marilyn Manson - Rock Amp Roll Nigger Chords & Tabs

 

Rock Amp Roll Nigger Chords & Tabs

Marilyn Manson Chords & Tabs

Version: 1 Type: Tab 0 ratings
1 star 2 stars 3 stars 4 stars 5 stars
comments

Rock Amp Roll Nigger Tab

   
Rock ‘N’ Roll Nigger by Marilyn Manson
Guitarist: Daisy Berkowitz
Album: Smells Like Children
Dif.: 6
Tabbed by Twiggy5

Intro
E|---0----------|
B|---0----------|
G|---9----------|
D|---9----------|
A|---7----------|
    ^ let this chord ring out and shyt around with the whammy bar. 
If you don’t have a whammy bar like I do just push in where the 
guitar strap goes on near the neck and push out on the back of the 
neck near the body of the guitar.... But don’t push to hard or 
you’ll break you’re guitar

Main Riff
G|------------9-|-----|-----|--9-7---7-5---|
D|------------9-|-----|-----|--9-7---7-5---|
A|------------7-|--%--|--%--|--7-5---5-3---|
E|--000000------|-----|-----|--------------|
   pm-----|

Pre-Verse
E|-0-------0----0---------------|
B|-0-------0----0---------------|
G|-9-------9----9----9-7---7-5--|
D|-9-------9----9----9-7---7-5--|
A|-7-------7----7----7-5---5-3--|

Verse (Rest till “Got’en big and..”)
G|--9-7---7-5--|
D|--9-7---7-5--|
A|--7-5---5-3--|

Pre-Chorus (“How do you like....”)
D|----------14-12--12-10---|
A|----------14-12--12-10---|
E|--12(24x)-12-10--10--8---|
    pm

Chorus (“Outside of society....”)
E|--0-------------------|
B|--0-------------------|
G|--9-------9-7--7-5----|
D|--9-------9-7--7-5----|
A|--7-------7-5--5-3----|
E|--0(24x)--------------|

Bridge
E|---0-----|
B|---0-----|
G|---9-----|
D|---9-----|
A|---9-----|
E|---0-----|
     ^ play with the whammy bar again for this........

Riff (“And this is your...”)
D|--------9--|
A|--------7--|
E|--0000-----|
   pm---|

Riff 2 (“I am the valley...”)
G|--9----7----5---|
D|--9----7----5---|
A|--7----5----3---|

End (“fukk you, fukk you, fukk you....”)
G|--9-----|
D|--9-----|
A|--7-----|
E|--0-----|

Song Structure: -
Intro
Pre-Verse
Verse
Pre-Chorus
Chorus
Main Riff
Chorus
Bridge
Riff
Riff 2
Main Riff
Verse
Chorus
End

Very fukking awesome song.... Any corrections, comments or 
suggestions email me at ToXic345x@yahoo.ca
=========== 
ROCK AND ROLL NIGGER


^=up-stroke
v-down-stroke

 pm----| ^v    pm--   ^v           ^v
B|------------|------------|------------|------------|
G|------------|------------|------------|------------|
D|-------77/9-|-------77/9-|-------77/9-|--97-------|
A|-------55/7-|-------55/7-|-------55/7-|--75---97-|
E|-00000------|-00000------|-00000------|------0-75-|

[ Tab from: http://www.guitartabs.cc/tabs/m/marilyn_manson/rock_amp_roll_nigger_tab.html ]
B|-------------------------|
G|-------------------------|
D|---------------97-------|
A|---------------75---97-|
E|-0000000000****----0-75-|


outside in society....

B|-----------------------|
G|-----------------------|
D|--7/9-999--9-----------|
A|--5/7-777--79-997-7---|
E|------------7-775-5---|

=======

          Song: Rock N' Roll Nigger (Live solo)
          Artist: Marilyn Manson
          Solo by: John5
          Album: Shock Rock Glam Show 
          Tabed by: Per "Pogo" Stenberg
          fanta98@hotmail.com
          
          h: Hammer on
          p: Pull of
          /: Slide down
          : Slide up
          b: Bend
          T: Tap with your right finger tip.
          
          This IS the best Manson solo of all time!
          It was veary hard to tab, so I hope you enjo it!
          Varning: There is a risk that you get REALLY tried in the left hand,
          so warm up you fingers...
          
          
          Solo
          
          -/2h4p3p2h4p3p2h4p3p2h4p3p2/4h6p5p4h6p5p4h6p5p4h6p5p4
          -----------------------------------------------------
          -----------------------------------------------------
          -----------------------------------------------------
          -----------------------------------------------------
          -----------------------------------------------------
          
                                           T          T        
          /6h10p7p6h10p7p6h10p7p6h10p7p6-17p12h15p12-17p12h15p12
          ------------------------------------------------------
          ------------------------------------------------------
          ------------------------------------------------------
          ------------------------------------------------------
          ------------------------------------------------------
          
            T           T
          -17p12h15p12-17p12h15p12h17/16/15/12h17/16/15/12h17/16/15/12
          ------------------------------------------------------------
          ------------------------------------------------------------
          ------------------------------------------------------------
          ------------------------------------------------------------
          ------------------------------------------------------------
          
          -19b-19b-19b-19b-
          -----------------
          -----------------
          -----------------
          -----------------
          -----------------
          
          comments?
          fanta98@hotmail.com
Comments