Marilyn Manson - Redeemer Chords & Tabs

 

Redeemer Chords & Tabs

Marilyn Manson Chords & Tabs

Version: 1 Type: Tab 0 ratings
1 star 2 stars 3 stars 4 stars 5 stars
comments

Redeemer Tab

   
Queen of the damned Soundtrack
Track 05 - Redeemer
Artist: Marilyn Manson

not sure if it is all right
 
Intro:
E|---------------------|
B|---------------------|
G|---------------------|
d|---------------------|
A|---------------------|
E|-3-2-0-1--3-2-0-1----|

Verse:
E|-------------------------------------|
B|-------------------------------------|
G|-------------------------------------|
d|-3-3-3-3-3-2-2-2-2-0-0-0-0-1-1-1-1-1-|
A|-3-3-3-3-3-2-2-2-2-0-0-0-0-1-1-1-1-1-|
E|-3-3-3-3-3-2-2-2-2-0-0-0-0-1-1-1-1-1-|

Chorus:
E|-------------------------|
B|-------------------------|
G|----------------2--------|
d|-0----2----3----2--------|  x2
A|-0----2----3----0----3-1-|
E|-0----2----3-------------|
[ Tab from: http://www.guitartabs.cc/tabs/m/marilyn_manson/redeemer_tab.html ]
Verse:
E|-------------------------------------|
B|-------------------------------------|
G|-------------------------------------|
d|-3-3-3-3-3-2-2-2-2-0-0-0-0-1-1-1-1-1-|
A|-3-3-3-3-3-2-2-2-2-0-0-0-0-1-1-1-1-1-|
E|-3-3-3-3-3-2-2-2-2-0-0-0-0-1-1-1-1-1-|

Chorus:
E|-------------------------|
B|-------------------------|
G|----------------2--------|
d|-0----2----3----2--------|    x2
A|-0----2----3----0----3-1-|
E|-0----2----3-------------|

Break Down - It's Haunting Me..
E|-1--------------0-----------------1---2------0---------0-|
B|---------------------------------------------------------|
G|---------------------------------------------------------|
D|---------------------------------------------------------|
A|---------------------------------------------------------|
E|---------------------------------------------------------|
Comments