Marilyn Manson - Redeemer Chords & Tabs

 

Redeemer Chords & Tabs

Marilyn Manson Chords & Tabs

Version: 2 Type: Bass Tab 0 ratings
1 star 2 stars 3 stars 4 stars 5 stars
comments

Redeemer Bass Tab

   
-----------------------------------------------------------------------------
			  REDEEMER - Marilyn Manson
-----------------------------------------------------------------------------

Tabbed by: KoRnKid89@aol.com
e-mail: XblytheX89@aol.com  

standard tuning

Intro pt. 1: (along with keyboards)
G|--------------------|----------------|----------------|----------------|
D|--------------------|----------------|----------------|----------------|
A|----3-3-3-3-3-3-3-3-|1-1-1-1-1-1-1-1-|3-3-3-3-3-3-3-3-|1-1-1-1-1-1-1-1-|
E|--------------------|----------------|----------------|----------------|
(x5)


[ Tab from: http://www.guitartabs.cc/tabs/m/marilyn_manson/redeemer_btab_ver_2.html ]
Intro pt. 2: (guitars and drums join) 
G|---------------|---------------|---------------|-------------|
D|---------------|---------------|---------------|-------------|
A|--6--6-6666666-|---------------|---------------|-------------|
E|---------------|--6--6-6666666-|--1--1-1111111-|--1111111111-|
(x2)



Verse: 
 "The hunger inside given to me..."
G|---------------|---------------|---------------|-------------|
D|---------------|---------------|---------------|-------------|
A|--6--6-6666666-|---------------|---------------|-------------|
E|---------------|--6--6-6666666-|--1--1-1111111-|--1111111111-|
(x2)



Chorus 1:
  (model #1)
G|-------|---------------|-------------|------|
D|-------|---------------|-------------|------|
A|-------|--------6---8~~|--------6~---|------|
E|--6~~--|----8----------|-------------|8-p6--|
(x3)
  
  (model #2)
G|-------|---------------|-------------|
D|-------|---------------|-------------|
A|-------|--------6---8~~|--------6~---|
E|--6~~--|----8----------|-------------|


(Verse)

Chorus 2 -- Same riff as Chorus 1, but play model #1 eight times and don't play model #2 at all.


Outro -- no bass.
Comments