Marilyn Manson - Redeemer Chords & Tabs

 

Redeemer Chords & Tabs

Marilyn Manson Chords & Tabs

Version: 1 Type: Bass Tab 0 ratings
1 star 2 stars 3 stars 4 stars 5 stars
comments

Redeemer Bass Tab

Redeemer
Marilyn Manson

Intro

G –0-0-1-1-1-----------------
D --------------3-3-1-1-------
A ------------------------4-3—
E -------------------------------

Verse
[ Tab from: http://www.guitartabs.cc/tabs/m/marilyn_manson/redeemer_btab.html ]
G -----------------------------------------------------------------------------------
D –1-1-1-1-0-0-0-0----------------------1-1-1-1-0-0-0-0-3-3-3-3-3-3-3-3-
A ---------------------3-3-3-3-1-1-1-1-------------------------------------------
E -----------------------------------------------------------------------------------

Chorus

G ---------------
D ----0-1-3----
A –1------------
E ---------------
Comments