Marilyn Manson - President Dead Chords & Tabs

 

President Dead Chords & Tabs

Marilyn Manson Chords & Tabs

Version: 1 Type: Tab 0 ratings
1 star 2 stars 3 stars 4 stars 5 stars
comments

President Dead Tab

   
President Dead by Marilyn Manson
Guitarist: John5 + Twiggy Ramirez
Album: Holy Wood (In The Shadow Of The Valley Of Death)
Dif.: 7
Tabbed by TWIGGy5

NOTE: * = strum 8x

Intro/Interlude (Gtr. 1)
E|------6-6-6-6\3-3-3-3-|-%-|-%-|---------------------|
B|------X-X-X-X-X-X-X-X-|-%-|-%-|---------------------|
G|------3-3-3-3\0-0-0-0-|-%-|-%-|-7--7--7--7-7-7-7/9--|
D|-5-2------------------|-%-|-%-|-7--7--7--7-7-7-7/9--|
A|-5-2------------------|-%-|-%-|-5--5--5--5-5-5-5/7--|
E|-3-0------------------|-%-|-%-|---------------------|

Fill 1 (Gtr. 1) (“Stained glass…….”) (w/ volume control)
B|--------feedback--------|
      <<<<<<<    >>>>>>>

Fill 2 (Gtr. 1) (“Fair………”)
B|-12*-11(4x)-10(4x)-|

Fill 3 (Gtr. 2)
G|-XXXX-|
D|-XXXX-|
A|-XXXX-|

Chorus (Gtr. 1)
G|----5*-----------------|
D|-7*-5*-5*-4-----3------|
A|-7*-3*-5*-4-----3------|
E|-5*----3*-2(4x)-1(4x)--|

Chorus (Gtr. 2) (Trem pik all)
E|-------------------------------------------10--11----15----|
B|-10---12---13-----------------10---12---13-----------------|
D|---------------9---11----12--------------------------------|

Verse 2 (Gtr. 1) (“Keep the pills……”)
Just muffled notes in no particular rhythm or anything, 
usually after bass hits G and E notes

Bridge (Gtr. 1)
E|--------------------10--9-7-0--------------3^-|-%-|
B|------------------------------7-5-3-0-5^-0----|-%-|
G|-------4p0---7p6------------------------------|-%-|
D|-----------4-----7----------------------------|-%-|
A|--0h2-----------------------------------------|-%-|

Solo (Gtr. 1)
E|-11-------11-------|
B|----10-10----10-10-| 9x

Solo (Gtr. 1) (cont.)
E|-11---11-------11-------11--------11-------11-------11-------
B|----10----10-10----10-10----10-10----10-10----10-10----10-10-

Solo (Gtr. 1) (cont.)
E|-11-------11-----------|
B|----10-10----10-10--\--|

End (Gtr. 1)
D|-5-2--|
A|-5-2--|
E|-3-0--|

Song Structure: -
The President Is Dead……….
Let Us Pray
Feedback Fade In
Intro (Gtr. 1)
Verse - Bass - (“President dead is…..”)
Fill 1 (Gtr. 1)
Verse Bass (“Incubated……”)
Fill 2
Fill 3 (Gtr. 2)
Chorus (Gtr. 1)/Chorus (Gtr. 2) (“And we don’t want……”)
Interlude (Gtr. 1) (“This is for…..”)
Verse Bass (“Give the pills time….”)/Verse 2 (Gtr. 1)
Fill 3 (Gtr. 2) (“High on violence……”)
Chorus (Gtr. 1)/Chorus (Gtr. 2)
Rest For Bass Shit (“This is for………”)
Bridge
Solo
Chorus (Gtr. 1)/Chorus (Gtr. 2)
End (Gtr. 1)

Alright there you go. Nice song for our dead 
president. Ha ha. Enjoy. If you have any comments, corrections, 
suggestions or even requests email me at toxic345x@yahoo.ca
===========
Song: "President Dead" solo
Artist: Marilyn Manson
Written by: Twiggy,5,Gacy
Lyrics by: Marilyn Manson
Solo by: 5
Album: Holy Wood (In the shadow of the valley of death)
tabed by: Per "Pogo" Stenberg
fanta98@hotmail.com or pogo@pianotabs.net


Well this is a very good solo.
It is harder then it sounds!
I haven't seen any tab with it!


Solo

------------------------------2p0------0-----5~--
-------------3-2----15-14-12------3p0------------
--------4--------2------------------------4~-----
----------4--------------------------------------  x2
-0h2---------------------------------------------
-------------------------------------------------


-11-14-11-14-11-14-11-14-
-------------------------
-------------------------
-------------------------
-------------------------
-------------------------


pogo@pianotabs.net
fanta98@hotmail.com

===========
[ Tab from: http://www.guitartabs.cc/tabs/m/marilyn_manson/president_dead_tab.html ]
          Tabbed by : julian015@hotmail.com
          Artist    : Marilyn Manson
          Album     : Holy Wood (In The Shadow Of The Valley Of Death)
          Song      : Track #6 - President Dead
          
          Tuning: Drop D (DADGBE)
          
          Key :
          
          / = slide up 
           = slide down
          xbyrx = bend note x up to note y, then release the 
          bend from note y back to note x
          
          Intro 
          
          E|--------------------------------------|
          B|-----11-11-11-11b12r11-11-------------|
          G|--------------------------10-10-10-10-|
          D|-5-0----------------------------10-10-|
          A|-5-0----------------------------------|
          D|-5-0----------------------------------|
          
          Distorted guitar #1 ("Get high on violence, baby")
          
          B|-------------------|
          G|-7---------7/9-9--|
          D|-7---------7/9-9--|
          A|-5---------5/7-7--|
          D|-------------------|
          
          Distorted guitar #2 ("And we don't want to live forever..")
          * = play note 8 times
          
          G|----------------------------------|
          D|--*7---*10---*5---4-4-4-4-3-3-3-3-|
          A|--*7---*10---*5---4-4-4-4-3-3-3-3-|
          D|--*7---*10---*5---4-4-4-4-3-3-3-3-|
          
          Light/Clean guitar ("This is for the people...")
          ~This can be played for this bit, just before the solo/interlude~
          
          B|--------------|
          G|-4------------|
          D|-4----------2-|
          A|-2----------2-|
          D|------------2-|
          
          Can't be buggered with the solo at the moment...
          

====

Song:President Dead
Album:Holy Wood(In the Shadow of the Valley of Death)
Artist:MAR1LYN MAN5ON
TAbbed:Jose O. Hernandez Loyola

E|--------------------------------------|----------|--------------|
B|-----11-11-11-11b12r11-11-------------|----------|--------------|
G|--------------------------10-10-10-10-|----------|-7~~~~-7/9-9--|
D|-5-0----------------------------10-10-|<=3-times-|-7~~~~-7/9-9--|
A|-5-0----------------------------------|----------|-5~~~~-5/7-7--|
E|-3-0----------------------------------|----------|--------------|
This is for the poeple. they want you................Get high on....

Chorus

E|----------------------------------------------------------------|
B|----------------------------------------------------------------|
G|----------------------------------------------------------------|
D|--xxxx77777777-10-10-10-10-10-10-10-10-55555555-4-4-4-4-3-3-3-3-|
A|--xxxx77777777-10-10-10-10-10-10-10-10-55555555-4-4-4-4-3-3-3-3-|
D|--xxxx55555555--9--9--9--9--9--9--9--9-33333333-2-2-2-2-1-1-1-1-|

Post- Chorus

E|--------------------------------------|----------|--------------|
B|-----11-11-11-11b12r11-11-------------|----------|--------------|
G|--------------------------10-10-10-10-|----------|-7~~~~-7/9-9--|
D|-5-0----------------------------10-10-|<=3-times-|-7~~~~-7/9-9--|
A|-5-0----------------------------------|----------|-5~~~~-5/7-7--|
E|-3-0----------------------------------|----------|--------------|
This is for the people. they want you................Get high on....

Before solo (1st part)(Clean)

B|--------------|
G|-4------------|
D|-4----------2-|
A|-2----------2-|
E|------------2-|

During the solo 2nd Part
(same that chorus)

E|-------------------------------------------------------------|
B|-------------------------------------------------------------|
G|-------------------------------------------------------------|
D|--77777777-10-10-10-10-10-10-10-10-55555555-4-4-4-4-3-3-3-3--|
A|--77777777-10-10-10-10-10-10-10-10-55555555-4-4-4-4-3-3-3-3--|
D|--55555555--9--9--9--9--9--9--9--9-33333333-2-2-2-2-1-1-1-1--|


End (bass)

E|-------|
B|-------|
G|-------|
D|-------|
A|-------|
E|--31--|


Intro - x 1
Verse (all bass)
Chorus - x2
Post-Chorus - x1
Chorus - x2
Before solo - x4
During solo part 2 - x2
Chorus - x8
End - x1
Comments