Marilyn Manson - Personal Jesus Chords & Tabs

 

Personal Jesus Chords & Tabs

Marilyn Manson Chords & Tabs

Version: 3 Type: Tab 0 ratings
1 star 2 stars 3 stars 4 stars 5 stars
comments

Personal Jesus Tab

PeRsOnNaL jEsUs:

Intro and Verses:

E---------------------------------------------------|
B---------------------------------------------------|
G---------------------------------------------------|    (Play many times)
D-----------------4---------------------------------|
A---------------------------------------------------|
E---2---5---2---------5---2-------------------------|


E----------------------------------------------------|
B----------------------------------------------------|
G----------------------------------------------------|
D-----------------9----------------------------------|
A----------------------------------------------------|
E----7---10---7-------10-----------------------------|

Chorus:
[ Tab from: http://www.guitartabs.cc/tabs/m/marilyn_manson/personal_jesus_tab_ver_3.html ]
-------------------------------------------------------|
-------------------------------------------------------|
-------------------------------------------------------|
-------------------4-----------------5----------4------|     (Play 2 times)
----------------------------(X2)-----5--(X4)----4(X4)--|
----2----5----2---------5------------5----------4------|

-------------------------------------------------------|
-------------------------------------------------------|
-------------------------------------------------------|
--5----------4------------10---------------------------|     (Play 1 time)
--5---(X5)---4----(x5)----10-(x5)----------------------|
--5----------4------------10---------------------------|

==========================================================================

-------------------------------------------------------|
-------------------------------------------------------|
-------------------------------------------------------|
---x---------------------------------------------------|    (Play 8 times)
---x---(x10)-------------------------------------------|
---x---------------------------------------------------|

That's all! Please enjoy it and if you have any comments tell me at explicit_lyrics89@hotmail.com
Comments