Marilyn Manson - Personal Jesus Chords & Tabs

 

Personal Jesus Chords & Tabs

Marilyn Manson Chords & Tabs

Version: 2 Type: Tab 0 ratings
1 star 2 stars 3 stars 4 stars 5 stars
comments

Personal Jesus Tab

i don't like marilyn manson that much
but this song is pretty good, i think!

e|------------------|
B|------------------|
G|------------------|
D|-----------4------|
A|------------------|
E|--2--5--2-----5b--|
[ Tab from: http://www.guitartabs.cc/tabs/m/marilyn_manson/personal_jesus_tab_ver_2.html ]
e|-----------------------|
B|-----------------------|
G|-----------------------|
D|--------------4--------|
A|-----------------------|
E|--2--2--5--2-----5--2--|

e|------------------|
B|------------------|
G|------------------|
D|-----------4------|
A|------------------|
E|--2--5--2-----5b--|

e|-----------------------|
B|-----------------------|
G|-----------------------|
D|--------------4--------|
A|-----------------------|
E|--2--2--5--2-----5--2--|

idon't know the rest of the song but i
still hope this will be in use

david
Comments