Marilyn Manson - New Model No 15 Chords & Tabs

 

New Model No 15 Chords & Tabs

Marilyn Manson Chords & Tabs

Version: 2 Type: Tab 0 ratings
1 star 2 stars 3 stars 4 stars 5 stars
comments

New Model No 15 Tab

New Model No.15 

Tabbed by Jonny Lydon 

Intro&Outro (lead)
-5b-----5b---7b-
-5b-----5b---7b-
----------------  (With Flanger and Rotovibe)
----------------  
----------------
----------------

Intro&Outro (rythm)
------------------
------------------
-9----------------
-9-Multiple times-
-7----------------
------------------


2nd Part of Intro AND Chorus
-----------------------------------
-----------9-------9-------9---999-
-*-*9*-*99-99*-*99-99*-*99-999-999-
-*-*9*-*99-79*-*99-79*-*99-799-777-   *= 11
-9-979-977--79-977--79-977--79-----
-----------------------------------


Verse (after the first refrain)
-------------------------------
-------------------------------
-------------------------------
----------7------7------7--777-
-9-979-977-79-977-79-977-79----
-------------------------------

[ Tab from: http://www.guitartabs.cc/tabs/m/marilyn_manson/new_model_no_15_tab_ver_2.html ]
Prechorus
------------------
------------------
-666-99999--------
-666-99999-999-7~-   ~= let ring 
-444-77777-999-7~-
-----------777-5~-Bridge (rythm) [sings "Pitifully predictable......"]
------------------------------------
------------------------------------
-444444--------444444---------------
-444444-555555-444444-555555-444444-   X 2
-222222-555555-222222-555555-444444-   
--------333333--------333333-222222-

--------------
--------------
--------------
-44-44-44-44\-   \= Slide down
-44-44-44-44\-
-22-22-22-22\-


Bridge (lead) [starts in middle of the bridge]
----14--------------14-----------
-17----17-14-----17----17-14-----
-------------16b-----------------
-----------------------------16b-  (loads of flange)
---------------------------------
---------------------------------

------------------
------------------
-14b-14b-14b-14b\-
------------------ (still has loads of flange)
------------------
------------------


Bridge 2 (sings "don't let them know how far you go.....")
-----------------------------------------------
-----------------------------------------------
------------------------------666-77777--------
-44-44-44-44-----44-44-44-44--666-77777-999-7~-
-44-44-44-44-----44-44-44-44--444-55555-999-7~-
-22-22-22-22-2/--22-22-22-22------------777-5~-


in the middle of the last chorus he will sing...
"New new new Model-Model-Model"
it's the only time where he says "model" more than once.
just continue to play---------- until the last time.
                     -99-99-99-
                     -99-99-99-
                     -77-77-77-
                     ----------
                     ----------
Comments