Marilyn Manson - My Monkey Chords & Tabs

 

My Monkey Chords & Tabs

Marilyn Manson Chords & Tabs

Version: 1 Type: Tab 0 ratings
1 star 2 stars 3 stars 4 stars 5 stars
comments

My Monkey Tab

   
Song: My Monkey
Artist: Marilyn Manson
Written by: Daisy
Lyrics by: Marilyn Manson,Charels Manson
Album: POAAF
tabed by: Per "Pogo" Stenberg
fanta98@hotmail.com or pogo@pianotabs.nu


Very bad song but the sax is cool and the solo is not that
bad. Well here it is... Pogo on Sax...


Intro   (Sax)
(Listen is the end of this riff you will here Trent Reznor
and Sean Beaven at Sax to)

------------------------------------------------------------
------------------------------------------------------------
-----2----4-4-4-5---2------2-2---------2--4-4-4-5----2------
---3---3----------3---3----------3---3------------3-----3-3-
-3----------------------3----------3------------------------
------------------------------------------------------------


Verse 1 A  (Guitar)
This I'm not 100% sure of...

 D      ?

-2~-----3~---4~---
-3~-----3~-----5~-
-2~-----2~--------
-0------0---------
------------------
------------------


Verse 1 B  (Bass)
I think Gein was better Bass player then Twiggy.

--------------------------
--------------------------
-0-0-----0-0--0-0-----0-3-
-----0-3----------0-3-----Chours     (Guitar)
(This should be right)

-------------------
-------------------
-------------------
-------------------
-------------------
-0-2-2-0-2-2-0-2-5-Chours (Lead guitar)
This is not right but it sucks anyway. 

---9-8----9-8---9-8---12-12-
-8------8-----8-----8-------
----------------------------
----------------------------
----------------------------
----------------------------Main riff   (Sax)

------------------------------------------------------------
------------------------------------------------------------
-----2----4-4-4-5---2------2-2---------2--4-4-4-5----2------
---3---3----------3---3----------3---3------------3-----3-3-
-3----------------------3----------3------------------------
------------------------------------------------------------Verse 2 A    (Guitar)

D      ?

-2~-----3~---4~---
-3~-----3~-----5~-
-2~-----2~--------
-0------0---------
------------------
------------------Verse 2 B   (Bass)

--------------------------
--------------------------
-0-0-----0-0--0-0-----0-3-
-----0-3----------0-3-----


Verse 2 C  (Sax or keyboard?)
I think this is a keyboard or Sax
played backwords. This about 1% correct but...

----------------------------
----------------------------
-7\6\5\4\3-7\6\5\4\3-11\5/7-
----------------------------
----------------------------
----------------------------


Verse 2 D  (Guitar)

--------------------------
--------------------------
--------------------------
--------------------------
-0-0-----0-0--0-0-----0-3-
-----0-3----------0-3-----


Chours     (Guitar)

-------------------
-------------------
-------------------
-------------------
-------------------
-0-2-2-0-2-2-0-2-5-


Chours (Lead guitar)

---9-8----9-8---9-8---12-12-
-8------8-----8-----8-------
----------------------------
----------------------------
----------------------------
----------------------------


Break A  (Bass)

----------------------------------------------------------
----------------------------------------------------------
-0-----------0-----------0-----------0--------------------
----0-3----0----0-3----0----0-3----0----0-3-3h5p3h5p3h5p3-


Break B Solo (Guitar)
Cool solo...

--------------------------/13-11-9~-
-------------------7-7--------------
-7-7-7-7h9-9-9p7-7-----7------------
------------------------------------
------------------------------------
------------------------------------


Main riff   (Sax)

------------------------------------------------------------
------------------------------------------------------------
-----2----4-4-4-5---2------2-2---------2--4-4-4-5----2------
---3---3----------3---3----------3---3------------3-----3-3-
-3----------------------3----------3------------------------
------------------------------------------------------------

[ Tab from: http://www.guitartabs.cc/tabs/m/marilyn_manson/my_monkey_tab.html ]
Outro      (guitar)
This the same as the Main riff but you use a wah-wah pedal.

------------------------------------------------------------
------------------------------------------------------------
-----2----4-4-4-5---2------2-2---------2--4-4-4-5----2------
---3---3----------3---3----------3---3------------3-----3-3-
-3----------------------3----------3------------------------
------------------------------------------------------------


Main riff   (Sax)

------------------------------------------------------------
------------------------------------------------------------
-----2----4-4-4-5---2------2-2---------2--4-4-4-5----2------
---3---3----------3---3----------3---3------------3-----3-3-
-3----------------------3----------3------------------------
------------------------------------------------------------


I know this tab suck but it is better the the rest 
(There is only 1 more tab of this song)
===========

          song: my monkey
          band: marilyn manson
          i had a little tab: jacob wall

          standard tuning. all through the horn section is basically solos but,
          ill show you the other riffs. i'll do the solos that are in the
          foreground later.

          riff 1 (theres a constant wah-wah guitar going on under the horn
          section. daisy's just strumming the same thing over and over)
          e||-----------------------------------||
          B||-----------------------------------||
          G||-----------------------------------||
          D||--7-7-7-7-7-7-7-7-7-7-7-7-7-7-7-7--||
          A||--7-7-7-7-7-7-7-7-7-7-7-7-7-7-7-7--||
          E||--5-5-5-5-5-5-5-5-5-5-5-5-5-5-5-5--||


          riff 2 (when lyrics come in. requires whammy bar. strum the five string
          riff find of slow. the last two "5's" he bends the strings down kind of
          weird, not actually sliding down)
         
e||--------------------------------------------8-----------8---------||         
B||----------------------8---------------------8-------------5\------||         
G||--------------------------------------------5-----------------5\--||         
D||--7---------------------7~~~----------------5---------------------||         
A||--7---------------------7~~~----------------0---------------------||         
E||--5---------------------5~~~--------------------------------------||


          riff 3 (this is behind "what I make is what I am")
          e||-----------------------------------------------------------------
          B||-----------------------------------------------------------------
          G||-----------------------------------------------------------------
          D||-----------------------------------------------------------------
          A||-----------------------------------------------------------------
          E||--0-2-2-2-0-2-2-2-0-2-2-2-0-2-2-2-0-2-2-2-0-2-2-2-0-2-2-2-0-2-5--


          riff 3 continued
          e||----------------------------------------------------------------||
          B||----------------------------------------------------------------||
          G||----------------------------------------------------------------||
          D||--2-4-4-4-2-4-4-4-2-4-4-4-2-4-4-4-2-4-4-4-2-4-4-4-/////////7-\--||
          A||----------------------------------------------------------------||
          E||----------------------------------------------------------------||


          riff 4 (bridge riff)
          e||-------------------------------------------------------------||
          B||-------------------------------------------------------------||
          G||-------------------------------------------------------------||
          D||-------------------------------------------------------------||
          A||----------------------------3----------------------------5^--||
          E||--5--5-0-3-5-5-3-5--5-0-3-5----5--5-0-3-5-5-3-5--5-0-3-5-----||


          thats it, pretty simple and kind of cool to play, especially that bridge
          riff.
Comments