Marilyn Manson - Mobscene Chords & Tabs

 

Mobscene Chords & Tabs

Marilyn Manson Chords & Tabs

Version: 5 Type: Tab 0 ratings
1 star 2 stars 3 stars 4 stars 5 stars
comments

Mobscene Tab

   
mOBSCENE - Marilyn Manson - The Golden Age of Grotesque
Tabbed by Tinboy

Tuning - Drop D

E B G D A D

Intro

|------------------------------------------------------------------------|
|------------------------------------------------------------------------|
|------------------------------------------------------------------------|
|---2-2-2-2-5-5-2-7--2-2-5-2--0-2-0--------------------------------------| x4
|---2-2-2-2-5-5-2-7--2-2-5-2--0-2-0--------------------------------------|
|---2-2-2-2-5-5-2-7--2-2-5-2--0-2-0--------------------------------------|

Verse

|------------------------------------------------------------------------|
|------------------------------------------------------------------------|
|------------------------------------------------------------------------|
|---x-x-x-x-x-0-2-0------------------------------------------------------| x8
|---x-x-x-x-x-0-2-0------------------------------------------------------|
|---x-x-x-x-x-0-2-0------------------------------------------------------|

Pre-Chorus - "bang we want it, bang we want it, bang bang bang bang bang"

|------------------------------------------------------------------------|
|---6tp--\--5tp----------------------------------------------------------|
|------------------------------------------------------------------------|
|------------------------------------------------------------------------| x4
|------------------------------------------------------------------------|
|------------------------------------------------------------------------|

Chorus

|------------------------------------------------------------------------|
|------------------------------------------------------------------------|
|------------------------------------------------------------------------|
|---2-2-2-2-5-5-2-7--2-2-5-2--0-2-0--------------------------------------| x4
|---2-2-2-2-5-5-2-7--2-2-5-2--0-2-0--------------------------------------|
|---2-2-2-2-5-5-2-7--2-2-5-2--0-2-0--------------------------------------|

Bridge - "you want commitment, put on your best suit"

|------------------------------------------------------------------------|
|------------------------------------------------------------------------|
|------------------------------------------------------------------------|
|---7-7-7-7-7-7-7-7--10-10-10-10-10-10-10-10-----------------------------| x3
|---7-7-7-7-7-7-7-7--10-10-10-10-10-10-10-10-----------------------------|
|---7-7-7-7-7-7-7-7--10-10-10-10-10-10-10-10-----------------------------|

|------------------------------------------------------------------------|
|------------------------------------------------------------------------|
|------------------------------------------------------------------------|
|---8-8-8-8-8-8-8-8-8-8-8-8-8-8-8-8--------------------------------------|
|---8-8-8-8-8-8-8-8-8-8-8-8-8-8-8-8--------------------------------------|
|---8-8-8-8-8-8-8-8-8-8-8-8-8-8-8-8--------------------------------------|

Verse

|------------------------------------------------------------------------|
|------------------------------------------------------------------------|
|------------------------------------------------------------------------|
|---x-x-x-x-x-0-2-0------------------------------------------------------| x12
|---x-x-x-x-x-0-2-0------------------------------------------------------|
|---x-x-x-x-x-0-2-0------------------------------------------------------|

Pre-Chorus

|------------------------------------------------------------------------|
|---6tp\5tp--------------------------------------------------------------|
|------------------------------------------------------------------------|
|------------------------------------------------------------------------| x4
|------------------------------------------------------------------------|
|------------------------------------------------------------------------|
  tp = tremelo pick

Chorus
[ Tab from: http://www.guitartabs.cc/tabs/m/marilyn_manson/mobscene_tab_ver_5.html ]
|------------------------------------------------------------------------|
|------------------------------------------------------------------------|
|------------------------------------------------------------------------|
|---2-2-2-2-5-5-2-7--2-2-5-2--0-2-0--------------------------------------| x4
|---2-2-2-2-5-5-2-7--2-2-5-2--0-2-0--------------------------------------|
|---2-2-2-2-5-5-2-7--2-2-5-2--0-2-0--------------------------------------|

Bridge

|------------------------------------------------------------------------|
|------------------------------------------------------------------------|
|------------------------------------------------------------------------|
|---7-7-7-7-7-7-7-7--10-10-10-10-10-10-10-10-----------------------------| x3
|---7-7-7-7-7-7-7-7--10-10-10-10-10-10-10-10-----------------------------|
|---7-7-7-7-7-7-7-7--10-10-10-10-10-10-10-10-----------------------------|

|------------------------------------------------------------------------|
|------------------------------------------------------------------------|
|------------------------------------------------------------------------|
|---8-8-8-8-8-8-8-8-8-8-8-8-8-8-8-8--------------------------------------|
|---8-8-8-8-8-8-8-8-8-8-8-8-8-8-8-8--------------------------------------|
|---8-8-8-8-8-8-8-8-8-8-8-8-8-8-8-8--------------------------------------|

Bridge2 + Chorus

|------------------------------------------------------------------------|
|------------------------------------------------------------------------|
|------------------------------------------------------------------------|
|---x-x-x-x-x-0-2-0------------------------------------------------------| x16
|---x-x-x-x-x-0-2-0------------------------------------------------------|
|---x-x-x-x-x-0-2-0------------------------------------------------------|

Bridge

|------------------------------------------------------------------------|
|------------------------------------------------------------------------|
|------------------------------------------------------------------------|
|---7-7-7-7-7-7-7-7--10-10-10-10-10-10-10-10-----------------------------| x3
|---7-7-7-7-7-7-7-7--10-10-10-10-10-10-10-10-----------------------------|
|---7-7-7-7-7-7-7-7--10-10-10-10-10-10-10-10-----------------------------|

|------------------------------------------------------------------------|
|------------------------------------------------------------------------|
|------------------------------------------------------------------------|
|---8-8-8-8-8-8-8-8-8-8-8-8-8-8-8-8--------------------------------------|
|---8-8-8-8-8-8-8-8-8-8-8-8-8-8-8-8--------------------------------------|
|---8-8-8-8-8-8-8-8-8-8-8-8-8-8-8-8--------------------------------------|

Bridge3 - "Ladies and gentlemen, be obscene, be obscene, be be obscene"

(Tacet)
|------------------------------------------------------------------------|
|------------------------------------------------------------------------|
|------------------------------------------------------------------------|
|---2-2-2-2-5-5-2-7--2-2-5-2--0-2-0--------------------------------------| x2 
|---2-2-2-2-5-5-2-7--2-2-5-2--0-2-0--------------------------------------|
|---2-2-2-2-5-5-2-7--2-2-5-2--0-2-0--------------------------------------|

|------------------------------------------------------------------------|
|------------------------------------------------------------------------|
|------------------------------------------------------------------------|
|---2-2-2-2-5-5-2-7--2-2-5-2--0-2-0--------------------------------------| x3
|---2-2-2-2-5-5-2-7--2-2-5-2--0-2-0--------------------------------------|
|---2-2-2-2-5-5-2-7--2-2-5-2--0-2-0--------------------------------------|

|------------------------------------------------------------------------|
|------------------------------------------------------------------------|
|------------------------------------------------------------------------|
|---2-2-2-2-5-5-2-(7----)------------------------------------------------|
|---2-2-2-2-5-5-2-(7-x36)------------------------------------------------|
|---2-2-2-2-5-5-2-(7----)------------------------------------------------|

|------------------------------------------------------------------------|
|------------------------------------------------------------------------|
|------------------------------------------------------------------------|
|---2-2-2-2-5-5-2-2------------------------------------------------------|
|---2-2-2-2-5-5-2-2------------------------------------------------------|
|---2-2-2-2-5-5-2-2------------------------------------------------------|

Thats all, any queries email infantfinite666@hotmail.com - feel free to add me to msn
Comments