Marilyn Manson - Mobscene Chords & Tabs

 

Mobscene Chords & Tabs

Marilyn Manson Chords & Tabs

Version: 4 Type: Bass Tab 0 ratings
1 star 2 stars 3 stars 4 stars 5 stars
comments

Mobscene Bass Tab

mOBSCENE - Marilyn Manson

By: Jon Craven (i_apathy@hotmail.com)
Write me if you have questions, comments, corrections, want .midi samples of
each riff, or have a tab request.

(4/4)(130 bpm)
Tuned one step down

Notes:
  -Played with a pick.
  -The second interlude is synth bass; if you don't want to play it, rest for
four measures.

r - eighth rest
x - dead note
* - note held for an eighth beat

Intro 1 (0:00)

Intro 2 (choruses): (x4)(0:01)
|----------------|----------------|
|----------------|----------------|
|------------2---|----------------|
|2-2-2-5-5-2-----|2-2-5-2-r-0-2-0-|

Verses (pre-choruses/pre-verses/interlude 1): (x8)(0:16)
|----------------|
|----------------|
|----------------|
|x-x-x-x-x-0-2-0-|

Pre-chorus 1 (x4)(0:31)
Chorus 1 (x4)(0:38)

Bridges: (0:53)
|----------------|----------------|----------------|----------------|
|----------------|----------------|----------------|----------------|
|2-2-2-2-2-2-2-2-|5-5-5-5-5-5-5-5-|2-2-2-2-2-2-2-2-|5-5-5-5-5-5-5-5-|
|----------------|----------------|----------------|----------------|
[ Tab from: http://www.guitartabs.cc/tabs/m/marilyn_manson/mobscene_btab_ver_4.html ]
|----------------|----------------|----------------|----------------|
|----------------|----------------|----------------|----------------|
|2-2-2-2-2-2-2-2-|5-5-5-5-5-5-5-5-|3-3-3-3-3-3-3-3-|3-3-3-3-3-3-3-3-|
|----------------|----------------|----------------|----------------|

Pre-verse 1 (x4)(1:08)
Verse 2 (x8)(1:15)
Pre-chorus 2 (x4)(1:30)
Chorus 2 (x4)(1:37)
Bridge 2 (1:52)
Pre-verse 2 (x8)(2:07)
Interlude 1 (x12)(2:22)
Bridge 3 (2:44)

Interlude 2: (x2)(2:59)(synth bass)
|----------------|----------------|
|----------------|----------------|
|------------2---|----------------|
|2-2-2-5-*-2-----|2-2-5-2-r-0-2-0-|

Outro chorus: (3:06)
|----------------|----------------|----------------|----------------|
|----------------|----------------|----------------|----------------|
|------------2---|----------------|------------2---|----------------|
|2-2-2-5-5-2-----|2-2-5-2-r-0-2-0-|2-2-2-5-5-2-----|2-2-5-2-r-0-2-0-|

|----------------|----------------|----------------|----------------|
|----------------|----------------|----------------|----------------|
|------------2---|----------------|------------2---|2-2-2-2-2-2-2-2-|
|2-2-2-5-5-2-----|2-2-5-2-r-0-2-0-|2-2-2-5-5-2-----|----------------|

|----------------|----------------|
|----------------|----------------|
|2-2-2-2-2-2-2-2-|----------------|
|----------------|2-2-2-5-*-5-2-r-|

Rest till end
Comments