Marilyn Manson - Mobscene Chords & Tabs

 

Mobscene Chords & Tabs

Marilyn Manson Chords & Tabs

Version: 3 Type: Bass Tab 0 ratings
1 star 2 stars 3 stars 4 stars 5 stars
comments

Mobscene Bass Tab

-------------------------------------------------------------------------------
			     mObscene - MArilYn MAnsoN
-------------------------------------------------------------------------------

Tabbed By : Ki11er
e-mail: crazy_guitar66@yahoo.com

OK i was tired of reading the wrong tabs, so i did this my self.

Tuning: dropp d

G|-----------------------------------------------------------------------------|
D|-----------------------------------------------------------------------------|
A|-----------------------------------------------------------------------------|
D|----2-2-2/---555/---7---22--5--2---0-1-0-------------------------------------|
[ Tab from: http://www.guitartabs.cc/tabs/m/marilyn_manson/mobscene_btab_ver_3.html ]
Verse:
G|---------------------------------------------------------------|
D|---------------------------------------------------------------|
A|---------------------------------------------------------------|
D|--------0----3----0--------------------------------------------|

Chorus:
G|-----------------------------------------------------------------------------|
D|-----------------------------------------------------------------------------|
A|-----------------------------------------------------------------------------|
D|----0-0-0-0-0-0-0-3-3-3-3-3-3-3-0-0-0-0-0-0-0-3-3-3-3-3-3-3-3-3--------------|

G|-----------------------------------------------------------------------------|
D|-----------------------------------------------------------------------------|
A|-----------------------------------------------------------------------------|
E|----0-0-0-0-0-0-0-0-3-3-3-3-3-3-3-1-1-1-1-1-1-1------------------------------|
Comments