Marilyn Manson - Mobscene Chords & Tabs

 

Mobscene Chords & Tabs

Marilyn Manson Chords & Tabs

Version: 2 Type: Bass Tab 0 ratings
1 star 2 stars 3 stars 4 stars 5 stars
comments

Mobscene Bass Tab

   
Artist - Marilyn Manson
Song - mOBSCENE
Album - The Golden Age of Grotesque

Standard Tuning (EADG)

Intro:
G/-----------------------------
D/-----------------------------
A/-----------------------------
E/-0-0-0-3-3-3-5---0-0-3-0-1-0-

Verse:
G/---------------
D/---------------
A/---------------
E/----0--3--0----
[ Tab from: http://www.guitartabs.cc/tabs/m/marilyn_manson/mobscene_btab_ver_2.html ]
Chorus:
G/-------------------------------------------------------------
D/-------------------------------------------------------------
A/-0-0-0-0-0-0-0-0-3-3-3-3-3-3-3-0-0-0-0-0-0-0-0-3-3-3-3-3-3-3-
E/-------------------------------------------------------------

G/------------------------------------------------
D/------------------------------------------------
A/0-0-0-0-0-0-0-0-3-3-3-3-3-3-3-3-1-1-1-1-1-1-1-1-
E/------------------------------------------------
Comments