Marilyn Manson - Mobscene Chords & Tabs

 

Mobscene Chords & Tabs

Marilyn Manson Chords & Tabs

Version: 1 Type: Bass Tab 0 ratings
1 star 2 stars 3 stars 4 stars 5 stars
comments

Mobscene Bass Tab

   
Tabbed By : B1ack 5eptember(AIM)
e-mail: white_skitel@hotmail.com

~~~~~~~~~~~~~~~~~~
Marilyn Manson
"mOBSCENE"(3:27)
The Golden Age of Grotesque(2003)
~~~~~~~~~~~~~~~~~~
Tuning:E,A,D,G(with A slight distortion)

[ Tab from: http://www.guitartabs.cc/tabs/m/marilyn_manson/mobscene_btab.html ]
      INTRO
G|---------------------------------------------------------------------------|
D|---------------------------------------------------------------------------|
A|---------------0-----------------------------------------------------------|
E|--0-0-3-0-0-0----0-3-0-0-2-0(4 times)--------------------------------------|
      VERSE
G|---------------------------------------------------------------------------|
D|---------------------------------------------------------------------------|
A|---------------------------------------------------------------------------|
E|-x-x-0/3( 11 times)--------------------------------------------------------|
      CHORUS
G|---------------------------------------------------------------------------|
D|---------------------------------------------------------------------------|
A|---------------0-----------------------------------------------------------|
E|--0-0-3-0-0-0----0-3-0-0-2-0( 4 times)-------------------------------------|
      POST- CHORUS
G|---------------------------------------------------------------------------|
D|---------------------------------------------------------------------------|
A|------------------3-3-3-3-3-3-3-3-----------------3-3-3-3-3-3-3-3----------|
E|--5-5-5-5-5-5-5-5-----------------5-5-5-5-5-5-5-5--------------------------|
      POst- CHORUS (cont.) 
G|---------------------------------------------------------------------------|
D|---------------------------------------------------------------------------|
A|---------------------------------------------------------------------------|
E|-6-6-6-6-6-6-6-6-6-6-6-6-6-6-6---------------------------------------------|

There of course is alternative 
ways to play this, but I have 
seen Marilyn Manson's bassists 
play and this is the way I am 
betting Tim Skold will play it.
-Chris
Comments