Marilyn Manson - Magic 8 Ball Chords & Tabs

 

Magic 8 Ball Chords & Tabs

Marilyn Manson Chords & Tabs

Version: 1 Type: Tab 0 ratings
1 star 2 stars 3 stars 4 stars 5 stars
comments

Magic 8 Ball Tab

Artist: Marilyn Manson
Song: Magic 8 Ball
Music: Berkowitz, Gein
Album: POAFF Outtakes
Transcribed by: Spooky Mike
Email: Amandas_Lestat@hotmail.com
Standard tuning

intro
---------
---8-----
-6---6/--
---------
---------
---------
                                                                              
*after intro, allow some feedback to ring...
[ Tab from: http://www.guitartabs.cc/tabs/m/marilyn_manson/magic_8_ball_tab.html ]
main riff (x2)
-------------------
-------------------
-------------------
-2----8------9/8/9-
-2-xx-8-xx-x-9/8/9-
-0-xx-6-xx-x-7/6/7-
                                                                              
riff 2 (x4)
----------------------
----------------------
----------------3/2/3-
-5555-6666-5555-------
-3333-4444-3333-------
----------------------
                                                                              
verse 1 (muted) (x4)
------------------
------------------
------------------
------------------
-2-2-8-22-2-99-8--
-0-0-6-00-0-77-6--
"you can get your answers from the eightball, the eightball..."
                                                                              
bridge (x3)
---------------
---------------
-------------5-
-3/4-3/4-3/4-5-
-3/4-3/4-3/4-3-
-1/2-1/2-1/2---
                                                                              
chorus (x2)
----------------------------
----------------------------
-------------------44444444-
-66666666-33333333-44444444-
-66666666-33333333-22222222-
-44444444-11111111----------
"outlook, not good. what I wanna hear. look at me, lie to me..."
                                                                              
verse 2 (x4)
---------------------
---------------------
---------------------
-2222-5555-4444-3333-
-2222-5555-4444-3333-
-0000-3333-2222-1111-
"there comes a degree of greed, we've all lost our souls, now tell 'em what we need..."
"better, better, better, better not tell you..."
                                                                              ===========

          
          Author/Artist: Marilyn Manson
          Title: Magic 8 Ball
          Album: Portrait of an American Family (outtake)
          Transcribed by: Michael Jonathan
          Email: TheSpookyKidsFL@aol.com
          
          standard tuning
          
          ---------|
          ---8-----|
          -6---6/1-|
          ---------|
          ---------|
          ---------|
          (intro)
                                                                                        
          -------------------|
          -------------------|
          -------------------|
          -------------------|
          -------------------|
          -0-0-6-0-0-0-7/6/7-|
          (main riff)
          
          
          |------------------------------------------------
          |------------------------------------------------
          |-------------------------3/2/3------------------
          |------------------------------------------------
          |-3-3-3-3-4-4-4-4-3-3-3-3------------------------
          |------------------------------------------------
          (verse)
Comments