Marilyn Manson - Lunchbox Chords & Tabs

 

Lunchbox Chords & Tabs

Marilyn Manson Chords & Tabs

Version: 4 Type: Tab 0 ratings
1 star 2 stars 3 stars 4 stars 5 stars
comments

Lunchbox Tab

   
hi this is THE correct lunchbox i know it is, all the version i saw on the internet where 
wrong but this is the right one.. Thx to  El Bevros(El_bevros@yahoo.com  for his version 
of the solo, great job!!
Except for the mainriff is the song exactly the same as his version so i just copied it!..

Standard tuning: EADGBe

At the first time of riff 1 play :

G-x-x-x-x-x-x
D-x-x-x-x-x-x
A-x-x-x-x-x-x


riff 1
e|--------------------------------------------------------|
B|--------------------------------------------------14^^^-|
G|--7/9-9-x-x-x-5-x-x-x-10-10---7/9-9-x-x-x-5-x-x-x-14^^^-|
D|--7/9-9-x-x-x-5-x-x-x-10-10---7/9-9-x-x-x-5-x-x-x-13^^^-|
A|--5/7-7-x-x-x-3-x-x-x--9--9---5/7-7-x-x-x-3-x-x-x-------|
E|--------------------------------------------------------|

riff 2
e]---------------------------------------------------
B]---------------------------------------------------
G]------7------7------7---------------12h14p12-------
D]--2:--7-5-2--7-5-2--7-5-2--12-14-12----------12h14-
A]--2:--5-5-2--5-5-2--5-5-2--------------------------
E]--0:----3-0----3-0----3-0--------------------------


Verse, (0:39-1:02)
e]--------
B]--------
G]--7-----  Play 8X, but on 8th time 
D]--7-5-2-  let the last chord ring 
A]--5-5-2-
E]----3-0-


Chorus, (1:03-1:25) The number of times you play each
                    chord is not exact but you can figure
                    it out.
Iwanna grow up, wanna be................................
e]------------------------------------------------------
B]------------------------------------------------------
G]--99999999-1212121212121212-77777777------------------ 
D]--99999999-1212121212121212-77777777------------------
A]--77777777-1010101010101010-55555555-2222222222222222-
E]-------------------------------------0000000000000000-
                                       |______PM_______|

e]-------------------------------------------------------
B]-------------------------------------------------------
G]-99999999-1212121212121212-1414141414141414------------
D]-99999999-1212121212121212-1414141414141414------------
A]-77777777-1010101010101010-1212121212121212-2222222222-
E]--------------------------------------------0000000000-
                                             |____PM____|

[ Tab from: http://www.guitartabs.cc/tabs/m/marilyn_manson/lunchbox_tab_ver_4.html ]
Main Riff, (1:25-1:37)
e]-------------------------------------------------------
B]-------------------------------------------------------
G]-7/9-9-X-X-X-12-X-X-X-10^-10-7/9-9-X-X-X-12-X-X-X-14^-- X2
D]-7/9-9-X-X-X-12-X-X-X--9^--9-7/9-9-X-X-X-12-X-X-X-13^--
A]-5/7-7-X-X-X-10-X-X-X--------5/7-7-X-X-X-10-X-X-X------
E]-------------------------------------------------------


Pre-Chorus, (1:37-2:13)
Next Mother Fucker.............
e]-----------------------------
B]-----------------------------    On final time
G]----------------------7------    add vibrato to
D]--2:-----X-X-X--X-X-X-7-5-2--    last note.
A]--2:-----X-X-X--X-X-X-5-5-2--
E]--0:-----X-X-X--X-X-X---3-0--
          |_____PLay 12X_____|


Chorus, (2:14-2:36)
Just Play This The Same Way As Before.


Little Solo, (2:37-2:45)
e]---------------------------------------
B]---------------------------------------
G]---------------------------------------
D]-----------------------------------2:--
A]------7-7-5-5----------7-7-5-5-----2:--
E]--0-0---------7-7--0-0---------3-3-0:--
   |____Play 3X____|


Keyboard Part Arranged For Guitar, (2:53-3:03)
e]--------------------------------------------
B]--------------------------------------------
G]--------------------------------------------
D]--12--------12--------12--------12----------
A]-----10-7:-----10-7:-----10-7:-----10-7:----
E]--------------------------------------------


Main Solo, (3:04-3:14)
e]----------------------------------------------------------
B]----------------15-------------------------------------15-
G]-------------12----14^(14)-12-14-12-14-12-14-12-14^(14)---
D]-12-12-12-14----------------------------------------------
A]----------------------------------------------------------
E]----------------------------------------------------------

e]----------------------------------------------------------
B]---------15---------15------------------------------------
G]-14^(14)----14^(14)----14^(14)-12-14-12-------------12-14-
D]----------------------------------------14-12-14-12-------
A]----------------------------------------------------------
E]----------------------------------------------------------

e]---------------------
B]---------------------
G]-12-14-14^-14-12-----
D]-----------------14--
A]---------------------
E]---------------------
                   
The solo sounds great this way thx to el_bevros!


Chorus, (3:17-4:02)
Just Play This The Same Way As Before, But 2X instead Of 1


Outro. (4:07-4:20)
e]------------------------------------
B]------------------------------------
G]-7-------7-------7-------7----------
D]-7-5-2~--7-5-2~--7-5-2~--7-5-2~~~~--
A]-5-5-2~--5-5-2~--5-5-2~--5-5-2~~~~--
E]---3-0~----3-0~----3-0~----3-0~~~~--
Comments