Marilyn Manson - Lunchbox Chords & Tabs

 

Lunchbox Chords & Tabs

Marilyn Manson Chords & Tabs

Version: 1 Type: Tab 0 ratings
1 star 2 stars 3 stars 4 stars 5 stars
comments

Lunchbox Tab

   
song:lunchbox
album:portrait of an american family
artist:marilyn manson
date:13.06.01

lunchbox
tabbed by godisinthetvuk@hotmail.com

standard tuning EADGBe
MAIN RIFF/INTRO

e------------------------------------------------------------|
B------------------------------------------------------------|
G----XXXXXXX-5/9-9--XXX--12--XXX--14-14----------------------|
D----XXXXXXX-5/9-9--XXX--12--XXX--14-14----------------------|
A----XXXXXXX-7/7-7--XXX--10--XXX--12-12----------------------|
E------------------------------------------------------------|

e------------------------------------------------------------|
B------------------------------------------------------------|
G----XXXXXXX-5/9-9--XXX--12--XXX--14^------------------------|
D----XXXXXXX-5/9-9--XXX--12--XXX--14^------------------------|
A----XXXXXXX-7/7-7--XXX--10--XXX-----------------------------|
E------------------------------------------------------------|
[ Tab from: http://www.guitartabs.cc/tabs/m/marilyn_manson/lunchbox_tab.html ]
BRING IT DOWN..............................ON WE PLOW
e]---------------------------------------------------|
B]---------------------------------------------------|
G]------7------7------7---------------12h14p12-------|
D]--2:--7-5-2--7-5-2--7-5-2--12-14-12----------12h14-|
A]--2:--5-5-2--5-5-2--5-5-2--------------------------|
E]--0:----3-0----3-0----3-0--------------------------|

Iwanna grow up, wanna be................................
e]------------------------------------------------------|
B]------------------------------------------------------|
G]--99999999-1212121212121212-77777777------------------|
D]--99999999-1212121212121212-77777777------------------|
A]--77777777-1010101010101010-55555555-2222222222222222-|
E]-------------------------------------0000000000000000-|
                                       |______PM_______|

e]-------------------------------------------------------|
B]-------------------------------------------------------|
G]-99999999-1212121212121212-1414141414141414------------|
D]-99999999-1212121212121212-1414141414141414------------|
A]-77777777-1010101010101010-1212121212121212-2222222222-|
E]--------------------------------------------0000000000-|
                                             |____PM____|

ANY COMENTS EMAIL ME @ godisinthetvuk@hotmail.com
Comments