Marilyn Manson - Lunchbox Chords & Tabs

 

Lunchbox Chords & Tabs

Marilyn Manson Chords & Tabs

Version: 3 Type: Bass Tab 0 ratings
1 star 2 stars 3 stars 4 stars 5 stars
comments

Lunchbox Bass Tab

Marilyn Manson's Lunchbox 
off of the album: Portrait of an American Family
Tabbed by: Bryan Wilson (Sinistarthought@aol.com)

Get the rhythm off the album...cuz i am sure that you wont be able to play it
with it.

Drop-D tuning (DADG)


Verse
G|----------------------------------------7-5-----
D|-------------5-5-7-5----------------5-5-----5---
A|-5h7-7-5h7-7--------5---5h7-7-5h7-7-------------
D|------------------------------------------------

Chorus
G|------------------------------------------------
D|-7-7-7-7-7-7-5-5-5-5-3h5------------------------
A|-------------------------5-5-5-5-5-5-7-7-7-7-7-7
D|------------------------------------------------
[ Tab from: http://www.guitartabs.cc/tabs/m/marilyn_manson/lunchbox_btab_ver_3.html ]
Next Mother Fucker's gonna get...
G|------------------------------------------------
D|------------------------------------------------
A|-7-7-7-7-5-5-5-5-3-3-3--------------------------
D|------------------------------------------------

pre-Bridge (This may also be the outro)
G|-----7-7-5-5------------------------------------
D|-5-5---------7-7--------------------------------
A|------------------------------------------------
D|------------------------------------------------

Bridge
G|------------------------------------------------
D|------------------------------------------------
A|----(Same as the Verse)-------------------------
D|------------------------------------------------
Comments