Marilyn Manson - Lunchbox Chords & Tabs

 

Lunchbox Chords & Tabs

Marilyn Manson Chords & Tabs

Version: 1 Type: Bass Tab 0 ratings
1 star 2 stars 3 stars 4 stars 5 stars
comments

Lunchbox Bass Tab

Marilyn Manson 
Lunchbox
 
Lunchbox (bass:gidget gein)
tabbed by brian ...  lovesong@mediaone.net
 
Don't complain if some minor things are wrong, reason that you are 
looking at this is because you didn't feel like learning it on your 
own, email me with any questions
 
[ Tab from: http://www.guitartabs.cc/tabs/m/marilyn_manson/lunchbox_btab.html ]
G----------------------------------
D---------------5-5-6h7------------
A----7-7-7--5-7---------5-7-7-5-7-- intor verse
E----------------------------------
                                                                               
G--------------------------------------
D--------------------------------------
A-777777---1010101010----5555-777777--- chorus
E--------------------------------------
 
G---------------
D---7----5------
A------------7--
E--------------- bridge-- ending
 

these are the main riffs, you can ass fills if you like

Comments